Song name
# A B C D E F G H I J K L M N O P Q R S T U V W X Y Z

Rich Robinson - Yesterday I Saw You tab

Artist: Rich Robinson (http://www.richrobinson.net/2007/)
Song: Yesterday I Saw You
Album: Paper

This song, with the exception of the solo rhythm part, was originally tabbed by Greg 
 I made one or two very small changes.

Tuning: CFCFAC (Open F)

Intro:
C-------------------------------------------|
A-----12-12--12--12--12--3\5--3--1-0-1-0-0--|
F-----10-10--10--10--10--0----0--0-0-0-0-0--| x2
C------------------------0----0--0-0-0-0-0--|
F--12-12-12--12--12--12--3\5--3--2-0-2-0-0--|
C-------------------------------------------|

C------------------------------------------------|
A------------------------------------------------|
F----3-3----3-3----5-3------------------------3--| x2
C----3-3----3-3--0-----5-3-5-3----------------3--|
F----3-3----3-3--0-------------5-3-5-3--------3--|
C--5------5----------------------------5-5--5----|

Verse 1:
C----------------------------------------|
A--12-12--12--12--12--3\5--3--1-0-1-0-0--|
F--10-10--10--10--10--0----0--0-0-0-0-0--|
C---------------------0----0--0-0-0-0-0--|
F--12-12--12--12--12--3\5--3--2-0-2-0-0--|
C----------------------------------------|

C-------------------------------------------|
A-----12-12--12--12--12--3\5--3--1-0-1-0-0--|
F-----10-10--10--10--10--0----0--0-0-0-0-0--| x2
C------------------------0----0--0-0-0-0-0--|
F--12-12-12--12--12--12--3\5--3--2-0-2-0-0--|
C-------------------------------------------|

C------------------------------------------------|
A-----12-12--12--12--12--3\5--3--1-0-1-0----0-5--|
F-----10-10--10--10--10--0----0--0-0-0-0----0-5--|
C------------------------0----0--0-0-0-0----0-5--|
F--12-12-12--12--12--12--3\5--3--2-0-2-0----0-5--|
C------------------------------------------------|

Chorus:
C-------------------------|
A-------------------------|
F--------0----------------| x3
C--------0----------------|
F--5-3-0-0--4--5--7----0--|
C-----------2--3--5--3----|

C--------------------|
A--------------------|
F--------0--------5--|
C--------0--------5--|
F--5-3-0-0--4--5--5--|
C-----------2--3-----|

Verse 2:
C----------------------------------------|
A--12-12--12--12--12--3\5--3--1-0-1-0-0--|
F--10-10--10--10--10--0----0--0-0-0-0-0--|
C---------------------0----0--0-0-0-0-0--|
F--12-12--12--12--12--3\5--3--2-0-2-0-0--|
C----------------------------------------|

C--------------------------------------------------------------------|
A-----12-12--12--12--12--3\5--3--1-0-1-0-----------------------------|
F-----10-10--10--10--10--0----0--0-0-0-0--2b3-2-0--2b3-2-0--2b3-2-0--|
C------------------------0----0--0-0-0-0--------0--------------------|
F--12-12-12--12--12--12--3\5--3--2-0-2-0-----------------------------|
C--------------------------------------------------------------------|

C-------------------------------------------------|
A-----12-12--12--12--12--3\5--3--1-0-1-0----------|
F-----10-10--10--10--10--0----0--0-0-0-0----------|
C------------------------0----0--0-0-0-0----------|
F--12-12-12--12--12--12--3\5--3--2-0-2-0----------|
C----------------------------------------3..../5--|

The last part notated here is a tremolo pick on the third fret of the low C

string, then slide up to the fifth fret.

C--------------------------------------------------|
A-----12-12--12--12--12--3\5--3--1-0-1-0------0-5--|
F-----10-10--10--10--10--0----0--0-0-0-0----3-0-5--|
C------------------------0----0--0-0-0-0----3-0-5--|
F--12-12-12--12--12--12--3\5--3--2-0-2-0----3-0-5--|
C--------------------------------------------------|

Solo Rhythm
C-----------------|
A--3\1-0-1-0-1-0--|
F--0---0-0-0-0-0--| x2
C--0---0-0-0-0-0--|
F--3\2-0-2-0-2-0--|
C-----------------|

C----------------------------------------------|
A--3\1-0-1-0--3\1-0-1-0-1-0--0--3\1-0-1-0-1-0--|
F--0---0-0-0--0---0-0-0-0-0--0--0---0-0-0-0-0--|
C--0---0-0-0--0---0-0-0-0-0--0--0---0-0-0-0-0--|
F--3\2-0-2-0--3\2-0-2-0-2-0--0--3\2-0-2-0-2-0--|
C----------------------------------------------|

C-----------------|
A--3\1-0-1-0-1-0--|
F--0---0-0-0-0-0--| x2
C--0---0-0-0-0-0--|
F--3\2-0-2-0-2-0--|
C-----------------|

C----------------------------------------------|
A--3\1-0-1-0--3\1-0-1-0-1-0--0--3\1-0-1-0------|
F--0---0-0-0--0---0-0-0-0-0--0--0---0-0-0-3-5--|
C--0---0-0-0--0---0-0-0-0-0--0--0---0-0-0-3-5--|
F--3\2-0-2-0--3\2-0-2-0-2-0--0--3\2-0-2-0-3-5--|
C----------------------------------------------|

Outro:
C-------------------------|
A-------------------------|
F--------0----------------| x7
C--------0----------------|
F--5-3-0-0--4--5--7----0--|
C-----------2--3--5--3----|

C--------------------|
A--------------------|
F--------0--------5--|
C--------0--------5--|
F--5-3-0-0--4--5--5--|
C-----------2--3-----|

C----------------------------------------------|
A--3\1-0-1-0--3\1-0-1-0-1-0--0--3\1-0-1-0------|
F--0---0-0-0--0---0-0-0-0-0--0--0---0-0-0-3-5--|
C--0---0-0-0--0---0-0-0-0-0--0--0---0-0-0-3-5--|
F--3\2-0-2-0--3\2-0-2-0-2-0--0--3\2-0-2-0-3-5--|
C----------------------------------------------|
Tap to rate this tab
 
# A B C D E F G H I J K L M N O P Q R S T U V W X Y Z