Song name
# A B C D E F G H I J K L M N O P Q R S T U V W X Y Z

Rich Robinson - Enemy tab

Artist: Rich Robinson
Song: Enemy
Album: Paper

The majority of this tab was originally written by Greg Schuchart.  I expanded it

and fixed a few things.

Tuning: CFCFAC (Open F)

Intro:
C--------------------------------------------|
A--12-12--12-x--7----7-7--3--3--7------7--7--|
F--12-12--12-x--7----7-7--0--0--7------7--7--|
C--12-12--12-x--7----7-7--0--0--7------7--7--|
F--12-12--12-x--7----7-7--4--4--7------7--7--|
C---------------0----0----------0--0-0-------|

C-----------------------------------|
A--12-12--12-x--7--7-7-7-7-7--1--1--|
F--12-12--12-x--7--7-7-7-7-7--0--0--|
C--12-12--12-x--7--7-7-7-7-7--3--0--|
F--12-12--12-x--7--7-7-7-7-7--2--2--|
C---------------0-------------------|

Verse:
C--------------------------------|
A--0--x-1--1-0-x-x-1--0--1--0-x--|
F--0--x-0--0-0-x-x-0--0--0--0-x--|
C--0--x-0--0-0-x-x-0--0--0--0-x--|
F--0--x-2--2-0-x-x-2--0--2--0-x--|
C--------------------------------|

C------------------------|
A--1--0-x-x-1/3\2-0-1-0--|
F--0--0-x-x-0-----0-0-0--|
C--0--0-x-x-0-----0-0-0--|
F--2--0-x-x-2/4\2-0-2-0--|
C------------------------|

The entire verse figure is repeated four times, which is followed by this:

C--------------------------|
A--------------------8--7--|
F--------7--------7--7--7--|
C--------7--------7--9--7--|
F--------7--------7--7--7--|
C--7-8-9----7-8-9----------|

C----------------------------|
A----------------------------|
F--------7--------7--7-7--7--|
C--------7--------7--7-7--7--|
F--------7--------7--7-7--7--|
C--7-8-9----7-8-9------------|

Then another verse, which is the same as the first:

C--------------------------------|
A--0--x-1--1-0-x-x-1--0--1--0-x--|
F--0--x-0--0-0-x-x-0--0--0--0-x--|
C--0--x-0--0-0-x-x-0--0--0--0-x--|
F--0--x-2--2-0-x-x-2--0--2--0-x--|
C--------------------------------|

C------------------------|
A--1--0-x-x-1/3\2-0-1-0--|
F--0--0-x-x-0-----0-0-0--|
C--0--0-x-x-0-----0-0-0--|
F--2--0-x-x-2/4\2-0-2-0--|
C------------------------|

Chorus:
C--------------------------|
A--------------------8--7--|
F--------7--------7--7--7--|
C--------7--------7--9--7--|
F--------7--------7--7--7--|
C--7-8-9----7-8-9----------|

C----------------------------|
A----------------------------|
F--------7--------7--7-7--7--|
C--------7--------7--7-7--7--|
F--------7--------7--7-7--7--|
C--7-8-9----7-8-9------------|

The entire chorus figure is repeated four times for the first chorus, then six

for the outro chorus, which ends on this chord:

C-----
A--1--
F--0--
C--3--
F--2--
C-----

Pre-Solo:
C--------------------------------------------|
A--12-12--12-x--7----7-7--3--3--7------7--7--|
F--12-12--12-x--7----7-7--0--0--7------7--7--| x2
C--12-12--12-x--7----7-7--0--0--7------7--7--|
F--12-12--12-x--7----7-7--4--4--7------7--7--|
C---------------0----0----------0--0-0-------|

Solo Rhythm:
C--------------------------------------------|
A--12-12--12-x--7----7-7--3--3--7------7--7--|
F--12-12--12-x--7----7-7--0--0--7------7--7--|
C--12-12--12-x--7----7-7--0--0--7------7--7--|
F--12-12--12-x--7----7-7--4--4--7------7--7--|
C---------------0----0----------0--0-0-------|

C--------------------------------|
A--12-12--12-x--7--7-7-7-7-7--1--|
F--12-12--12-x--7--7-7-7-7-7--0--|
C--12-12--12-x--7--7-7-7-7-7--3--|
F--12-12--12-x--7--7-7-7-7-7--2--|
C---------------0----------------|
Tap to rate this tab
# A B C D E F G H I J K L M N O P Q R S T U V W X Y Z