Song name
# A B C D E F G H I J K L M N O P Q R S T U V W X Y Z

Rich Robinson - Veil tab

Artist: Rich Robinson
Song: Veil
Album: Paper

This song was originally tabbed by Greg Schuchart.  I made some minor changes and

added the solo rhythm.

Tuning: CFCFAC (Open F)

Intro:
C----------------------------------5---3----|
A--x-x-----------------------------------0--|
F--x-x---------0---------0------------------|
C--------------------------0h3h4h5---5------|
F----------------0h3h4h5--------------------|
C------0h3h4h5------------------------------|

C------------------------------5---3--|
A----------------------------------3--|
F----------0---------0----------------|
C----------------------0h3h4h5---5----|
F------------0h3h4h5------------------|
C--0h3h4h5----------------------------|

Pre-Verse:
C----5--3-----------------------------------------|
A----------5--3--0------------1----1--------------|
F------------------2b3r2-0------0----0-------0-0--|
C--5---------------------------------------0------|
F---------------------------3-----2----2p0--------|
C-------------------------------------------------|

Verse:
C----------5---3----------------------------------------------|
A------------------5---3--0-------------1----1----------------|
F---------------------------2b3r2-0-------0----0-------0-0----|
C--0h3h4h5---5---5---5-------------------------------0--------|
F-----------------------------------0-3----2-----2p0----------|
C-------------------------------------------------------------|

Chorus:
C---------------|
A--5--3--8-8-x--|
F--0--0--0-0-x--| x3
C--0--0--9-9-x--|
F--5--4---------|
C---------------|

C---------------|
A--5--3--0-0-0--|
F--0--0--0-0-0--|
C--0--0--0-0-0--|
F--5--4--0-0-0--|
C---------------|

C---------------|
A--5--3--8-8-x--|
F--0--0--0-0-x--| x3
C--0--0--9-9-x--|
F--5--4---------|
C---------------|

C-----------|
A--5--3--0--|
F--0--0--0--|
C--0--0--0--|
F--5--4--0--|
C-----------|

Solo Rhythm:
C----------------------|
A--3-1--3-1--3-5--3-0--|
F--0-0--0-0--0-0--0-0--| x4
C--0-0--0-0--0-0--0-0--|
F--4-2--4-2--4-5--4-0--|
C----------------------|

Four the outro solo, this part is repeated 7 times, leading to the final measure:
C-----------------------|
A--3-1--3-1--3-5-3-1-0--|
F--0-0--0-0--0-0-0-0-0--|
C--0-0--0-0--0-0-0-0-0--|
F--4-2--4-2--4-5-4-2-0--|
C-----------------------|
Tap to rate this tab
 
# A B C D E F G H I J K L M N O P Q R S T U V W X Y Z