Song name
# A B C D E F G H I J K L M N O P Q R S T U V W X Y Z

Richard Buckner - Ariel Ramirez tab

Help us improve GuitareTab! Take a short survey!
-------------------------------------------------------------------------------
			     ARIEL RAMIREZ - Richard Buckner
-------------------------------------------------------------------------------
Tabbed by: David Butler
Email: dsbutler@mail.utexas.edu

Richard Buckner website: http://www.richardbuckner.com/

Tuning: drop high to d


| /  slide up
| \  slide down
| h  hammer-on
| p  pull-off

Oh where you lay

d------------------0-------|
B--------------------------|
G----------------2---2-2---|
D--------0h2-2h4-------4---|
A--0-0h2-------------------|
E--------------------------|

Your head tonight

d--------------------0-----|
B--------------------------|
G------------------2---2---|
D--2h4-4p2p0-0h2-2-------2-|
A----------------0---------|
E--------------------------|

I roll away alone

d-----------------------0-------|
B-------------------------------|
G---------------------0---0-----|
D--0-2-0-2/4-4p2p0----------0---|
A-------------------2---------2-|
E-------------------3-----------|


And close on down

d-----------------0--------|
B--------------------------|
G---------------2---2------|
D-------------0-------0----|
A---2-2-0---0-0------------|
E---------3----------------|


Take up your rein

d------------------0-------|
B--------------------------|
G----------------2---2-2-2-|
D--------0h2-2h4-------4---|
A--0-0h2-------------------|
E--------------------------|

And fly back out


d------------------0-------|
B--------------------------|
G----------------2---2---2-|
D-2-2h4-4p2p0--2-------2---|
A--------------0-----------|
E--------------------------|

And we'll pretend

d--------------------0-------|
B----------------------------|
G------------------0---0-----|
D--0--2/4-4p2p0----------0---|
A---------0------2---------2-|
E----------------3-----------|


Forget we're dead

d-----------------0--------|
B--------------------------|
G---------------2---2------|
D-------------0-------0----|
A---2-2-0---0-0------------|
E---------3----------------|


And we'll lay it down

d------------------------------|
B------------------------------|
G------------------------------|
D--------0h2-4-0-0h2-2p0-2-2-2-|
A--0-0h2---------0-------------|
E------------------------------|


When we're all through

d------------------------------|
B------------------------------|
G------------------------------|
D------------------------------|
A---------------0h2-2p0-2-2-2--|
E---------------3--------------|


When we're killed or cured

d------------------------------------|
B-----------------------3------------|
G----0--0--(0)-(0)-(0)-0-------------|(0)-(0)
D-0h2--------------------------------|
A------------------------------------|
E------------------------------------|
  |on killed|

And barely heard

[no guitar but the chords the piano plays in at the end are Bm A]

Put Ariel on

d------------------0-------|
B--------------------------|
G----------------2---2-2---|
D--------0h2-2h4-------4---|
A--0-0h2-------------------|
E--------------------------|


And smoke away the night

d-----------------------0-----|
B-----------------------------|
G---------------------2---2---|
D-0-2h3h4-4p2p0-0h2-2-------2-|
A-------------------0---------|
E-----------------------------|


And do the wide net crawl

d-----------------------0------|
B------------------------------|
G---------------------0---0----|
D--0-2-0-2/4-4p2p0----------0--|
A-------------------2----------|
E-------------------3----------|


Until the hammers fall

d-------------------0-----|
B-------------------------|
G--0--------------2---2---|
D--0-0-0-------0--------0-|
A--------2-----0----------|
E-----------3-------------|


d-------------------------------------------------------------------------------------------0----------------------------|
B------------------------------------------------------------------------------------------0---[strum]-------------------|
G-----------------2-2------2-2------------------------------------------------------------0------------------------------|
D------------0h2--2-2--0h2-2-2--0-2-0-2h4-4-4p2p0--2---2-----2--0-2-0-2h4-4-4p2p0-----0------------------------0h2-0-----|
A--0-0-0-0h2------0----0--------0-0-0-0-----0------2-2-0h2-2-2--0-0----------------------------------------0h2-------2---|
E--------------------------------------------------0-0-----0-----------------------3-------------------------------------|


I kept your poem here

[silence]


			With all my other gear		     But in the end	      I missed what it meant
d----2-------2-------2-------2-------2-------2-------2------------------5-------5-------5---------------------------------|
B--------2-------2-------2-------0-------0-------0--------------------------3-------3-------3---3----------------------2--|
G-------------------------------------------------------------------------------------------------------------0-2-----2---|
D---------------------------------------------------------------0-----0---0---0---0---0---0---0---0---------0--------2----|
A--0---0---0---0---0---0---0---0-------------------2---2---0-0h2------------------------------------------2---------0-----|
E----------------------------------0---0---0---0-------------------------------------------------------------------0------|

Oh where you lay

d------------------------------|
B------------------3-----------|
G----------------2-2h4p2-2p0-2-|
D--------0h2-2h4-------------4-|
A--0-0h2-----------------------|
E------------------------------|


Your head tonight

d--------------------0-----|
B--------------------------|
G--2---2-----------2---2---|
D--2h4-4p2p0-0h2-2-------2-|
A----------------0---------|
E--------------------------|


I roll away alone

d-----------------------0------|
B------------------------------|
G---------------------0---0----|
D--0-2-0-2/4-4p2p0----------0--|
A-------------------2----------|
E-------------------3----------|


And close on down

d-------------|
B-------------|
G-----------2-|
D-----------0-|
A---2-2p0---0-|
E---------3---|

| /  slide up
| \  slide down
| h  hammer-on
| p  pull-off

===============================================================================
Related for Ariel Ramirez tab