Song name
# A B C D E F G H I J K L M N O P Q R S T U V W X Y Z

Richard Dybeck - Du Gamla Du Fria tab

Richard Dybeck was born in 1811 and died 1877

Check out this link if you want to know more

http://david.national-anthems.net/se.htm


---------------------------------------------------------------------------
"Du gamla du fira" - Originally written by Rickard Dybeck
---------------------------------------------------------------------------

Tabbed by: Olof S         "FoLo"

Email: o_folo08@hotmail.com

	"Du gamla du fria"        The National anthem of Sweden


E------------------------------------------------------------------------|
B------------------------------------------------------------------------|
G-2-2-------------------------------2------------------------------------|
D-----3-3-3-5-7-7-5-3-2-5-5-2-3-5-3---3-------3-3-5-2-2-3-------2--------|
A---------------------------------------5-3--3------------5-3-5---3------|
E------------------------------------------------------------------------|

Du gamla du fria.........................    Jag hälsar dig...........

E-----------------------|
B-----------------------|
G---------------3-2-----|
D---3-2-3-5-7-3-----5-3-|
A-3---------------------|
E-----------------------|
 Din sol din himmel......
Tap to rate this tab
# A B C D E F G H I J K L M N O P Q R S T U V W X Y Z