Richard Hawley - Baby Youre My Light tab

-------------------------------------------------------------------------------
			     BABY YOU'RE MY LIGHT - Richard Hawley
-------------------------------------------------------------------------------
Tabbed by: Tom Acey

Tuning: standard

INTRO/VERSE 

e|-----------3--------------3----------------3------------------3----------|
B|-------0-----0-------0-------0-------0------0-----------0-----0----------|
G|---5------------5-----------------5-------------5----5------------5------|
D|-------------------------------------------------------------------------|
A|-------------------------------------------------------------------------|
E|-------------------------------------------------------------------------|

e|--------------3-------------3-----------1-----1--------------------------|
B|----------5-------------5----------1-----1------0---3---5----------------|
G|---4--5---------5--4---------4-------------------------------------------|
D|-------------------------------------------------------------------------|
A|-------------------------------------------------------------------------|
E|-------------------------------------------------------------------------|

And as life goes on you know you get to taste, all you find

e|----------0--------------0-------------0-------------0-------------0-----|
B|-------1-----0-------1------0-------1-----0-------1-----0-------3----0---|
G|---2--------------0------------------------------------------------------|
D|----------------------------------3-------------3-------------5----------|
A|-------------------------------------------------------------------------|
E|-------------------------------------------------------------------------|

e|---------0---------------------------------------------------------------|
B|------3----0-------------------------------------------------------------|
G|-------------------------------------------------------------------------|
D|---5---------------------------------------------------------------------|
A|-------------------------------------------------------------------------|
E|-------------------------------------------------------------------------|

Then back to the intro bit, pretty much the same all the way through

************************************

| /   slide up
| \   slide down
| h   hammer-on
| p   pull-off
| ~   vibrato
| +   harmonic
| x   Mute note
| b   Bend
| pb  Pre-bend
| br  Bend release
| pbr Pre-bend release
| brb Bend release bend

************************************
Tap to rate this tab
 
# A B C D E F G H I J K L M N O P Q R S T U V W X Y Z