Song name
# A B C D E F G H I J K L M N O P Q R S T U V W X Y Z

Richard Hawley - Its Over Love tab

This is 'It's Over Love' by the brilliant Richard Hawley from his 'Lowedges' album. Not 
sure if it's 100% but I can't see another version up here

Capo 2

The main part:

  G        Em      Dmaj7
e|----------------------------------|
B|-----0-------0-------0-------0----|
G|---0---2---0---0---0---0---0---0--|
D|-0-------2-------4-------2--------|
A|-----------------5----------------|
E|-3-------0---------------0--------|

  G        Em      Dmaj7
e|----------------------------------|
B|-----0-------0-------0-------0----|
G|---0---2---0---0---0---0---0---0--|
D|-0-------2-------4-------2--------|
A|-----------------5----------------|
E|-3-------0---------------0--------|

Just before the verse:

  C               Bm7
e|----------------------------------|
B|-------1-------------3---5--------|
G|-----0---0---0-----2---2---2------|
D|---2-------2---2/4----------------|
A|-3--------------------------------|
E|----------------------------------|
Tap to rate this tab
# A B C D E F G H I J K L M N O P Q R S T U V W X Y Z