Song name
# A B C D E F G H I J K L M N O P Q R S T U V W X Y Z

Richard Hawley - Dark Road chords

Highlighted       Show chord diagrams
Richard Hawley
Dark Road

Based on Robbie's version, which can also be found here. I made a few changes to 
the solo (same notes, but easier to play) and corrected a few chords and added the 
intro and the outro.

--------

Intro
-----
e|----------------------------------------------------------------------|
B|----------------------------------------------------------------------|
G|----------------------------------------------------------------------|
D|----------------------------------------------------------------------|
A|-------0-2---4p2-0-2s4------------------0-2---4p2-0-2-0---------------|
E|-0-0-2----------------------------0-0-2-------------------------------|

Verse
-----

N/C              Bm
Itís a long dark road
E              A
That I call my home
(A)              Bm
Itís a long dark road
E                   A
That Iím cursed to roam


Chorus
------

      Bm                    E
These many nights Iíve been banished here
      A             F#m
My companion is the stars
       Bm             E
With a bed-roll and a blanket
             A               F#m
And just the rocks to lay my bones
    Bm           E
One day from the darkness
          A               F#m
Iíll come rapping at your door
         Bm              E        A
And Iíll never walk this road any more


Solo
----

e|----------------------------------------------------------------------|
B|----------------------------------------------------------------------|
G|----------------------------------------------------------------------|
D|----------------------------------------------------------------------|
A|-------0-2---4p2-0-2s4------------------0-2---4p2-0-2s4---------------|
E|-0-0-2----------------------------0-0-2-------------------------------|

e|----------------------------------------------------------------------|
B|----------------------------------------------------------------------|
G|----------------------------------------------------------------------|
D|-2-4-4-7-6--2-2---2---2---6-4----------2-4-4-7-6---2-2--2---2---6-4---|
A|-----------------4---4---4----------------------------4---4---4-------|
E|----------------------------------------------------------------------|

e|----------------------------------------------------------------------|
B|----------------------------------------------------------------------|
G|----------------------------------------------------------------------|
D|---------2--------------------------------2---------------------------|
A|-0-2-2-4---4-4-0h2-4-4-0----------0-2-2-4---4-0h2p0-------------------|
E|-------------------------2--------------------------------------------|


Verse
-----

N/C              Bm
Itís a long dark road
E              A
That I call my home
(A)              Bm
Itís a long dark road
E                   A
That Iím cursed to roam


Chorus
------

      Bm                    E
These many nights Iíve been banished here
      A             F#m
My companion is the stars
       Bm             E
With a bed-roll and a blanket
             A               F#m
And just the rocks to lay my bones
    Bm           E
One day from the darkness
          A               F#m
Iíll come rapping at your door
         Bm              E        A    F#m
And Iíll never walk this road any more

         Bm              E        A   F#m
No Iíll never walk this road any more
         Bm              E        A  
No Iíll never leave this home any more


Outro
-----

Bm E A 

e|----------------------------------------------------------------------|
B|----------------------------------------------------------------------|
G|----------------------------------------------------------------------|
D|----------------------------------------------------------------------|
A|-------0-2---4p2-0-2s4------------------0-2---4p2-0-2-0---------------|
E|-0-0-2----------------------------0-0-2-------------------------------|
Tap to rate this tab
 
# A B C D E F G H I J K L M N O P Q R S T U V W X Y Z