Song name
# A B C D E F G H I J K L M N O P Q R S T U V W X Y Z

Richard Hawley - Dont Stare At The Sun tab

-----------------------------------------------------------------------------
                  DON'T STARE AT THE SUN - Richard Hawley
-----------------------------------------------------------------------------

Tabbed by: Diego Flores
E-mail: diegofe22@gmail.com

CHORDS
Cadd9[x3203x]
Cadd9*[x32033]
C[x32010]
Dmadd9/F[xx3230]
Fmaj7/A[x03210]]
Em/G[xx5450]
G[32000x]
Am[x02210]
Am/G[302210]
Am/F#[202210]
Tuning: standard

Chords

Intro
e|------5-3--5-----3------------------|
B|--3-5-3-3--3---5-5-5---3------------|
G|--5-5-5-5--5---5---5---2------------| x2
D|------------------------------------|
A|------------------------------------|
E|------------------------------------|

Cadd9      Cadd9*     C
Love just drifts us on,
     Dmadd9/F      Fmaj7/A
On our way, to the fields where we will play today.
Cadd9  Cadd9*       C
Louis brings his kite,
     Dmadd9/F      Fmaj7/A
With a homemade paper-chain.
Cadd9  Cadd9*       C
Strange to see the sight,
     Dmadd9/F      Fmaj7/A
Of the moon, in the daytime not the night.
Cadd9  Cadd9*     C
I will lift you up,
     Dmadd9/F      Fmaj7/A
So high, on my shoulders to the sky.
Em/G
Ahhh...

Fmaj7/A             G         Am Am/G Am/F#
Don't stare at the sun too long.
Fmaj7/A             G         Introx1
Don't stare at the sun too long.

Cadd9      Cadd9*     C
Singing in the dark,
     Dmadd9/F      Fmaj7/A
On our way home, the day is done for sleepy ones.
Cadd9      Cadd9*     C
On the fire escape,
     Dmadd9/F      Fmaj7/A
My telescope, that scans the evening sky.
Cadd9      Cadd9*     C
If I could see it all,
     Dmadd9/F      Fmaj7/A
All to be lost, in the galaxy of distant stars.
Cadd9      Cadd9*     C
Did I see your face?
     Dmadd9/F      Fmaj7/A
It weighs so much, to be alone tonight.
Ahhh...

Fmaj7/A             G         Am Am/G Am/F#
Don't stare at the sun too long.
Fmaj7/A             G         Am Am/G Am/F#
Don't stare at the sun too long.
Fmaj7/A             G
You scare everyone,
Fmaj7/A             G
If you stare at the sun.
Fmaj7/A             G           Am
Don't stare at the sun too long.


e|---5--7-8-7--------5--7-8-7-12|
B|-5----------5----5------------|
G|------------------------------| x2
D|------------------------------|
A|------------------------------|
E|------------------------------|


e|-0-12-10-8-7--8-10-10/12-10-8-7-----|
B|------------------------------------|
G|------------------------------------|
D|------------------------------------|
A|------------------------------------|
E|------------------------------------|

e|-0-12-10-8-7--8-10-10/12-10-8-7b8-7b8-7b8-----|
B|----------------------------------------------|
G|----------------------------------------------|
D|----------------------------------------------|
A|----------------------------------------------|
E|----------------------------------------------|

e|-------------0---------------------------------------------------|
B|-0h1-------1-----------------------|    |-0h1-1-1-1s3-3-3-3s5----|
G|------2--2-------------------------------------------------------| x3
D|-----------------------------------------------------------------|
A|-----------------------------------------------------------------|
E|-----------------------------------------------------------------|


overdrive!
e|------------------------------------|    |----------1---12-------------------------|
B|-12b13b12-10--12b13b12-10--10-10----|    |-10s12-12-12-12s13-13-13-13s15-15-15s17--|
G|-----------------------------------------------------------------------------------| x3
D|-----------------------------------------------------------------------------------|
A|-----------------------------------------------------------------------------------|
E|-----------------------------------------------------------------------------------|

x2

e|--0---0---0---0--------------------0-0-0-0-------|
B|--17--17--17-17--------------------5-5-5-5-------|
G|-------------------------------------------------| x3
D|-------------------------------------------------|
A|-------------------------------------------------|
E|-------------------------------------------------|



Fmaj7/A             G         Am
Don't stare at the sun too long...
Tap to rate this tab
# A B C D E F G H I J K L M N O P Q R S T U V W X Y Z