Song name
# A B C D E F G H I J K L M N O P Q R S T U V W X Y Z

Richard Hell - Liars Beware tab

Liars Beware by Richard Hell and the Voidoids
tabbed by CallieQ

h- Hammer on
p- pull off
v- strum down
^- strum up


Intro
| ------------------------------------- |
| ------------------------------------- |
| ------------------------------------- |
| --------------------------v^v^v^v^v^v |
| -4--4--4--4--4--4-4-4-4-4-44444444444 |
| ------------------------------------- |

Verse/Chorus

| -------------------------------------- |
| -------------------------------------- |
| -------------------------------------- |
| v^v^v^v^v^v^v^v^v^v^v^v v^v^v^v^v^v^v^ |
| 44444444444444444444444444444444444444 |
| -------------------------------------- |
Look out liars and you highlife scum...
Your motives and your methods are not disguised...
They gave you power ‘cause they know your needs...
You were 65 when you wiggled out...

| -------------------------------------- |
| ----v--^--------------^--------------- |
| ----7--9--v-----------7-v---7p9--v---- |
| ----------9-----7h9-----9--------9---- |
| -------------------------------------- |
| -------------------------------------- |
(x2)...and dumb....and dumb...
(x2)...your lies...your lies...
(x2)...you seeds...your seeds...
(x2)...away...away...
(x2)...all shout...all shout...
(x2)...for lice...for lice...
                                    
| -------------------------------------- |
| -------------------------------------- |
| ---------------v^v^v--v--------------- |
| ----v---^------55555--7---v---^------- |
| ----5---3--v--------------4---5------- |
| -----------5-------------------------- |
(x2)Look out here you pompous jerk...
(x2)Look out chief...
(x2)Look out jerk...


| -------------------------------------- |
| ----v--^--------------^--------------- |
| ----7--9--v-----------7-v---7p9--v---- |
| ----------9-----7h9-----9--------9---- |
| -------------------------------------- |
| -------------------------------------- |

| -------------------------------------- |
| ----v--^--------------^--------------- |
| ----7--9--v-----------7-v---7p9--v---- |
| ----------9-----7h9-----9--------9---- |
| -------------------------------------- |
| -------------------------------------- |

| -------------------------------------- |
| ----v-v-^-^-v------------------------- |
| ----9-9-9-9-9-----12-12-12------------ |
| ----9-9-9-9-9-----12-12-12------------ |
| ----7-7-7-7-7-----10-10-10------------ |
| -------------------------------------- |
Well I guess you put me in my place
Well you got power, now there’s competition
Well life is short, so don’t even try

| -----------^-------------------------- |
| ----v--v--15-v------------------------ |
| ----14-14-14-14---8-8-8--------------- |
| ----14-14-14-14---7-7-7--------------- |
| ----12-12-12-12---7-7-7--------------- |
| ------------------9-9-9--------------- |
but I won’t forget your stupid face
and your blind side’s turned to the boys with a mission
to bother waving as we pass you by

| -------------------------------------- |
| -------------------------------------- |
| ----7-5-x-7-x-5-x-7--7-5-x-7-5-7-5---- |
| ----7-5-x-7-x-5-x-7--7-5-x-7-5-7-5---- |
| ----5-3-x-5-x-3-x-5--5-3-x-5-3-5-3---- |
| -------------------------------------- |
 oh oh oh oh oh oh oh oh oh oh oh oh oh oh oh

Tap to rate this tab
# A B C D E F G H I J K L M N O P Q R S T U V W X Y Z