Song name
# A B C D E F G H I J K L M N O P Q R S T U V W X Y Z

Richard Marx - Now And Forever tab

e|-------------------------------------------------------|
B|---------------------------4-5---4-5--5h7p5--4---------|
G|-------------------------------7-------------------5/7-|
D|-5-5h7p5/4--5/7--7/9--9-9------------------------------|
A|-------------------------------------------------------|
E|-------------------------------------------------------|

e|-----------------------------------------------------7-|
B|--------------------------8---------7----7h8p7---------|
G|-----------------4--7--4------4-----------------9-9----|
D|--------4--5--7-----------------7----------------------|
A|----5-7------------------------------------------------|
E|-------------------------------------------------------|

e|---8--7h8p7-7h8p7---------7----------------------------|
B|-------------------10--10-----8-------8-8------8/10----|
G|-9-------------------------------7-7--------7----------|
D|-------------------------------------------------------|
A|-------------------------------------------------------|
E|-------------------------------------------------------|

e|-------------------------------------------------------|
B|---------8-7h8p7---------------------------------------|
G|------------------9--7-5\4------4-4h5------------------|
D|---------------------------7---------------------------|
A|-------------------------------------------------------|
E|-------------------------------------------------------|

h: Hammer
p: Pull off
\: Slide
Tap to rate this tab
 
# A B C D E F G H I J K L M N O P Q R S T U V W X Y Z