Song name
# A B C D E F G H I J K L M N O P Q R S T U V W X Y Z

Richard Muller - Studna tab

http://richard.muller.sk/


Solo gitara:

E-------------------------------------------|
H-------------------------------------------|
G--12-12-12---10-9-9h10-9-------------9-----|
D--------------------------12-10-12r--------|
A----------------------------------------12-|
E-------------------------------------------|



alebo



E--3-3-3-3-1-0-1-0-------0------|
H------------------3-1-3--------|
G--------------------------2----|
D-------------------------------|
A-------------------------------|
E-------------------------------|



C, Ami, Fmaj7 

C                  Ami
Nahol sa nad staru studnu 
     Fmaj7
pada dole klesa ku dnu 
C                 Ami 
Klesa ku dnu dolu hlavou 
     Fmaj7
a tvari sa nechapavo 

Je to celkom pekna studna 
cesta ku dnu nie je nudna 
Minuta v tom valci vody 
zda sa ako 10 hodin 

Klesa ku dnu vidi skaly 
v ktorych studnu vykopali 
Naposledy ludske oci 
boli v studni pred storocim 

Posledne zasoby vzduchu 
co vdychol hore na suchu 
Minaju sa pomalinky 
niet uz vzduchu na bublinky 

Nadychne sa vody chladnej 
onedlho bude na dne 
Vsade voda sama voda 
bez boja sa vode odda 

Klesa ako zo zeleza 
voda v studni cista, svieza 
Radost umriet v takej studni 
a pockat v nej na den sudny 

Klesa ku dnu celkom kludne 
na dne vidi ducha studne 
Duch studne mu privetivo 
a priatelsky vezme zivot
Tap to rate this tab
 
# A B C D E F G H I J K L M N O P Q R S T U V W X Y Z