Song name
# A B C D E F G H I J K L M N O P Q R S T U V W X Y Z

Richard Saslow - Coney Island Cakewalk tab

Coney Island Cakewalk by Richard Saslow


Part 1
|-------||------------0----|-------0-(0)------|
|-------||o-3---3---3------|-3---3-------3----|
|-------||----5---5--------|---5--------------|
|-------||------4-------4--|-----4---------4--|
|-3--4--||o-5--------------|-5----------------|
|-------||----------5------|----------5-------|

|-----------0----|-------0-(0)-----|
|-3---3---3------|-3---3-----------|
|---4---4--------|---4-------------|
|-----5-------5--|-----5-----------|
|----------------|--------------4--|
|-3-------3------|-3--------3------|

|-----------0----|-------0-(0)----6S|=7-3-------------|-----------------|
|-3---3---3------|-3---3-------3----|-----5-4S3-------|-----------------|
|---5---5--------|---5--------------|-----------6-5-3S|=4---------------|
|-----4-------4--|-----4------------|-----------------|---5-------------|
|-5--------------|-5----------------|-----------------|-----7-6S5-4-3-4-|
|---------5------|----------5-------|-----------------|-----------------|

|----------0----|-------0-(0)------|-----------0----|-1---1-0-(0)------|
|----3---3------|-3---3-------3----|-3---3---3------|---3---------3----|
|------5--------|---5--------------|---4---4--------|------------------|
|----4-------4--|-----4---------4--|-----5-------5--|------------------|
|-5-------------|-5----------------|----------------|-----0----1----2--|
|--------5------|----------5-------|-3-------3------|-3----------------|

|---------------|----------------|-----------------||
|-1---1--2---2--|-3---3----------|-----------------||
|---0------0----|---0---5---4----|-4---4---4---4-0-||
|---------------|-------6---6----|---5---7---7---0-||
|-3---3--4---4--|-5---5---7---7--|---------5---5---||
|---------------|----------------|-5---5-----------||

|----------------||------3-(3)-----||
|---------------o||----0-----------||
|-(0)------------||-0--------------||
|-(0)------------||-0--0----2---0--||
|------2--3--4--o||----------------||
|--3-------------||-3--------------||


Part 2
||-2--0---------|------------------|-3--0---------|-----0-3-(3)------|
||-1--1--3--1---|-0-1---0-(0)------|-0--0--3--0---|-0-3--------------|
||-------2----2-|-------------2----|-------0----3-|------------------|
||----0-----0---|-----0---------0--|----0-----0---|-----0--------0---|
||--------------|------------------|--------------|------------------|
||-2-----2------|-2--------2-------|-3-----3------|-3--------3-------|

|-2--0---------|------------------|-------------------|----------------------|
|-1--1--3--1---|-0-1---0-(0)------|---0---0-----------|----------------------|
|-------2----2-|-------------2----|-3---3---3p2p0-----|--3p=2p0-----0--------|
|----0-----0---|-----0---------0--|---------------2-0-|-(0)-----2-0---2------|
|--------------|------------------|-------------------|----------------------|
|-2-----2------|-2--------2-------|-------------------|-----------------0----|

|-2--0---------|------------------|-3--0---------|-----0-1-(1)-----|
|-1--1--3--1---|-0-1---0-(0)------|-0--0--3--0---|-0-3-------------|
|-------2----2-|-------------2----|-------0----3-|-----------------|
|----0-----0---|-----0---------0--|----0-----0---|-----0--------0--|
|--------------|------------------|--------------|-----------------|
|-2-----2------|-2--------2-------|-3-----3------|-3--------3------|

|---0-------0----|---0-------0----|---------------|-------------||
|-1---1---2------|-3---3----------|-2---2--1---1--|-0-----------||
|-------0--------|-------0-1------|---0------2----|-0-----------||
|----------------|---------2------|-----2--0------|-------------||
|-3---3---4---4--|-5---5----------|-0-------------|----2--3--4--||
|----------------|-------------0--|------------2--|-3-----------||

||-----------------|-----------------|---------------*|
||---0---3-(3)-----|-----------------|---------------*|
||-------1-(1)-----|-4---4---4---4-0-|-(0)-----------*|
||--------------2--|---5---7---7---0-|-(0)-----------*|
||-----------------|---------5---5---|-----1h2-------*|
||-3---2----0------|-5---5-----------|--3-------3----*|
Tap to rate this tab
# A B C D E F G H I J K L M N O P Q R S T U V W X Y Z