Song name
# A B C D E F G H I J K L M N O P Q R S T U V W X Y Z

Richard Shindell - You Stay Here tab

- song:You Stay Here
- artist:Richard Shindell
- album:Somewhere Near Paterson

tabbed by Michael Hallahan - October 2006
send *pleasant* corrections to:
mh@inorbit.com

standard tuna (EADGBe) - capo 4th

there are minor variations in the verse throughout the song and an extra
measure at the end of the 4th chorus...I'm sure you'll figure it out =)



Verse
   C#5      Asus2     Esus2    B         C#5      Asus2
E||------0-----------|------------------|------0--------3--|
B||------------1-----|------------------|------------1-----|
G||---------------0--|------0-----------|------------------|
D||---2-----3--------|---0-----------0--|---2-----3--------|
A||0-----------------|3-----------2-----|0-----------------|
E||------------------|---------3--------|------------------|

 E        B
|------------------||
|------------------||
|------0-----------||
|---2-----------0--||
|3-----------2-----||
|---------3--------||

Chorus
   A     E   B   C#m A     E   B   F#sus2                                                     
||-1---|-0-|-3-|-0-|-1---|-0-|-3-|---------0-----------------0--------||
||-1---|-1-|-0-|-1-|-1---|-1-|-0-|------3-----3-----------3-----3-----||
||-0h2-|-0-|-0-|-0-|-0h2-|-0-|-0-|---2-----------2-----2-----------2--||
||-3---|-2-|-0-|-2-|-3---|-2-|-0-|0-----------------0-----------------||
||-3---|-3-|-2-|-0-|-3---|-3-|-2-|------------------------------------||
||-----|---|-3-|-0-|-----|---|-3-|------------------------------------||

========================================================================

Verse

C#5 Asus2  Esus2 B   C#5 Asus2  E   B C#5 Asus2  Esus2 B   C#5 Asus2  E   B
You stay here,      I'll go look for wood.

C#5 Asus2  Esus2 B   C#5 Asus2  E   B C#5 Asus2  Esus2 B   C#5 Asus2  E   B
Do no..t fear,      I'll be back soon enough.

Chorus

A        E       B    C#m   A         E   B           F#sus2.......
  Do not let the fire die,    neither let it burn too bright.



You stay here, I'll go look for bread.
And if I can some sugar for the kids.
Dry your eyes, I'll be all right. I know where they've laid the mines.

You stay here, I'll go look for coats.
There may still be some out on the road.
We'll wash them clean with melted snow. The kids don't ever have to know.

You stay here, I'll go look for guns.
I think I know where they've hidden some.
'Cause if a tiger comes one night we won't go without a fight.

You stay here, I'll go look for God.
It's not so hard 'cause I know where he's not.
I will bring him back with me. Make him listen, make him see.

You stay here, I'll go look for wood.
Tap to rate this tab
# A B C D E F G H I J K L M N O P Q R S T U V W X Y Z