Song name
# A B C D E F G H I J K L M N O P Q R S T U V W X Y Z

Richard Strauss - Also Sprach Zarathustra tab

Help us improve GuitareTab! Take a short survey!
thanks to savatage_890@yahoo.com for the powertab
this txt version allows people who dont have powertab or whose computers dont
support it to view the song

Also Sprach Zarathustra
composed by Richard Strauss

theme to 2001: A Space Odyssey

Gtr I (E A D G B E)
Gtr II (E A D G B E)

 Build-Up

  Gtr I
 
|-----|-----------------------|-----------------------|----------|--------|
|-----|-----------------------|-----------------------|----------|--------|
|-----|-----------------------|-5--(5)-(5)----(5)---0-|-0--------|-(0)----|
|-----|------------5-(5)-(5)--|---------------------2-|-1--------|-(1)----|
|-----|-3-(3)-(3)-------------|---------------------3-|-3--------|-(3)----|
|-----|-----------------------|-----------------------|----------|--------|
|
|                                                        Gtr II
|-----|-----------------------|-----------------------|----------|--------|
|-----|-----------------------|---------------------5-|-4--------|-(4)----|
|-----|-----------------------|---------------------5-|-5--------|-(5)----|
|-----|-----------------------|---------------------5-|-5--------|-(5)----|
|-----|-----------------------|---------------------3-|-3--------|-(3)----|
|-----|-----------------------|-----------------------|----------|--------|


|-----------------------|-----------------------|----------|--------|
|-----------------------|-----------------------|----------|--------|
|-----------------------|-5--(5)-(5)----(5)---0-|-0--------|-(0)----|
|------------5-(5)-(5)--|---------------------1-|-2--------|-(2)----|
|-3-(3)-(3)-------------|---------------------3-|-3--------|-(3)----|
|-----------------------|-----------------------|----------|--------|
|
|                                             Gtr II
|-----------------------|-----------------------|----------|--------|
|-----------------------|---------------------4-|-5--------|-(5)----|
|-----------------------|---------------------5-|-5--------|-(5)----|
|-----------------------|---------------------5-|-5--------|-(5)----|
|-----------------------|---------------------3-|-3--------|-(3)----|
|-----------------------|-----------------------|----------|--------|


 Climax

|-----------------------|-----------------------|
|-----------------------|-----------------------|
|-----------------------|-5--(5)-(5)----(5)---0-|
|------------5-(5)-(5)--|---------------------2-|
|-3-(3)-(3)-------------|---------------------3-|
|-----------------------|-----------------------|
|
|-----------------------|-----------------------|
|-----------------------|---------------------5-|
|-----------------------|---------------------5-|
|-----------------------|---------------------5-|
|-----------------------|---------------------3-|
|-----------------------|-----------------------|


|----------|--------------------------|
|-1--------|-(1)----------------------|
|-2--------|-(2)----------------------|
|-3--------|-(3)----------------------|
|----------|--------------------------|
|----------|--------------------------|
|

|-5--------|--5--7--8--(8)---(8)--10--|
|-6--------|--6--8-10-(10)--(10)---x--|
|-5--------|-----------------------7--|
|-7--------|--------------------------|
|----------|--------------------------|
|----------|--------------------------|


|-----------------------|--------------|-------------|---------*|
|-----------------------|--------------|--------1----|--(1)----*|
|--5--------------------|-(5)-----2----|--4-----0----|--(0)----*|
|--2--------------------|-(2)-----2----|--5-----2----|--(2)----*|
|--x--------------------|-(x)-----3----|--5-----3----|--(3)----*|
|--3--------------------|-(3)----------|-------------|---------*|


|-12-13-15--(15)--12-13-|-15-----17----|-19----20----|-(20)----*|
|--x--x--x---(x)---x--x-|--x------x----|--x----17----|-(17)----*|
|--9-10-12--(12)---9-10-|-12-----14----|-16----17----|-(17)----*|
|-----------------------|--------------|-------------|---------*|
|-----------------------|--------------|-------------|---------*|
|-----------------------|--------------|-------------|---------*|
Related for Also Sprach Zarathustra tab