Song name
# A B C D E F G H I J K L M N O P Q R S T U V W X Y Z

Richard Thompson - Persuasion tab

Tab by Andrew Woods
I have Transcribled out the intro to this song an octave down,
as the bass notes that follow the high melody don't sound tht great up there
on 7th to 10th frets. Richard either uses a different tuning or he has two guitars.
Anway, enjoy


  C       F                     G             C      F              C

E----------------------------------H-------------------------------------|
B----------------------------1--5-353------------------------------------|
G-0---0---2------2-----2--4-----------5-4-----0----------------------0---|
D---0---0----3-----3-----------------------7----0-2--0-0--2--------------|
A-3---3---------------------------------------3--------------3---2---3---|
E---------1----1-----1-1--------3----------3---------1-1-----------3-----|

  C       F                     G             c     f

E----------------------------------H----------------------------------|
B----------------------------1--5-353------------3--1-----1-----1-----|
G-0---0---2------2-----2--4-----------5-4-----0-------2-----2---------|
D---0---0----3-----3-----------------------7------------3-----3-------|
A-3---3---------------------------------------3-----------------------|
E---------1----1-----1-1--------3----------3--------1-----------1-----|
Tap to rate this tab
 
# A B C D E F G H I J K L M N O P Q R S T U V W X Y Z