Song name
# A B C D E F G H I J K L M N O P Q R S T U V W X Y Z

Richard Thompson - Coyotes tab

I know I saw this on the internet somewhere before because I learned it like a year ago, 
I couldn't find it when I was looking for it so I just tabbed it out again by ear and 
came back to me quickly. Very easy tab, cool sounding song from the documentary Grizzly Man.

e---5--------|-------5-----------------------------|
b-7---5-7-3--|-3-5-7---7-5-7-3---------------------|
g------------|-------------------------------------|
d------------|-------------------------------------|
a------------|-------------------------------------|
e------------|-------------------------------------|

e-------3s5------|-------5-----------------------------|
b-3-5-7-----5-7-3|-3-5-7---7-5-7-3---------------------|
g----------------|-------------------------------------|
d----------------|-------------------------------------|
a----------------|-------------------------------------|
e----------------|-------------------------------------|
Tap to rate this tab
# A B C D E F G H I J K L M N O P Q R S T U V W X Y Z