Song name
# A B C D E F G H I J K L M N O P Q R S T U V W X Y Z

Richard Wright - Against The Odds tab

Against the Odds (intro) - Richard Wright

with love to you marie

e-------------------------------------------------------|
B-------------------------------------------------------|
G--2--4/9-----7---5/4------7----------------------------|
D-----------------------5-------------------------------|
A-------------------------------------------------------|
E-------------------------------------------------------|

e-------------------------------------------------------|
B-------------------------------------------------------|
G---7--5------------------------------------------------|
D---------7--5--7----7--5-------------------------------|
A--------------------------7--5--7----5--3--------------|
E-------------------------------------------5--3--5-----|

e---0--5--7/12--10--8/7-----10--------------------------|
B------------------------8------------------------------|
G-------------------------------------------------------|
D-------------------------------------------------------|
A-------------------------------------------------------|
E-------------------------------------------------------|

e--10--8------------------------------------------------|
B---------10--8--10---8--6------------------------------|
G---------------------------8--6--8---7--5--------------|
D-------------------------------------------7--5--7-----|
A-------------------------------------------------------|
E-------------------------------------------------------|

Any question or comments: dimarcosalas@hotmail.com
Tap to rate this tab
# A B C D E F G H I J K L M N O P Q R S T U V W X Y Z