Song name
# A B C D E F G H I J K L M N O P Q R S T U V W X Y Z

Richie Havens - Freedom tab

DROP DAMN C!!!

-----------------------------------------------------------|
----------------------12--10--12--12--13--12------10-------|
12--11--12------------------------------------12-----------|
------------12--10-----------------------------------------|
-----------------------------------------------------------|
-----------------------------------------------------------|

kinda fast licks

-----------------------------------------------------------|
-15-13-12-15-13-12-15-13-12-15-13-12-15-13-12--------------|
-----------------------------------------------------------|
-----------------------------------------------------------|
-----------------------------------------------------------|
-----------------------------------------------------------|

-----------------------------------------------------------|
-----------------------------------------------------------|
--14-16-17-14-16-17-14-16-17-14-16-17-14-16-17-------------|
-----------------------------------------------------------|
-----------------------------------------------------------|
-----------------------------------------------------------|

And finally the ending
                             LET RIIIINNG
----------17---19----20----22------------------------------|
--13-15----------------------------------------------------|
-----------------------------------------------------------|
-----------------------------------------------------------|
-----------------------------------------------------------|
-----------------------------------------------------------|
Tap to rate this tab
 
# A B C D E F G H I J K L M N O P Q R S T U V W X Y Z