Song name
# A B C D E F G H I J K L M N O P Q R S T U V W X Y Z

Richie Kotzen - My Messiah tab

Intro (2x):

E||------------------------------|-----------------------------|
B||------------10-------9--------|-------------9------5--------|
G||------------12b-----11b~------|--2s--4--4--11b-----7b~------|
D||--2s--4--4--------------------|--2s--4--4-------------------|
A||--2s--4--4--------------------|--0s--2--2-------------------|
E||--0s--2--2--------------------|-----------------------------|


E||------------------------------|----------------------------|
B||------------10-------9--------|----------------------------|
G||------------12b-----11b~------|--2s--4--4--2--2s--4--4~----|
D||--2s--4--4--------------------|--2s--4--4--2--2s--4--4-----|
A||--2s--4--4--------------------|--0s--2--2--0--0s--2--2-----|
E||--0s--2--2--------------------|----------------------------|

Verse (2x):

E||-----------------------|-----------------------|
B||-----------------------|-----------------------|
G||-----------------------|--2s--4--4-------------|
D||--2s--4--4-------------|--2s--4--4-------------|
A||--2s--4--4-------------|--0s--2--2-------------|
E||--0s--2--2-------------|-----------------------|


E||-----------------------|------------------------|
B||-----------------------|------------------------|
G||--6s--7--7-------------|--7s--9-----------------|
D||--6s--7--7-------------|--7s--9-----2-----------|
A||--4s--5--5-------------|--5s--7-----2-----------|
E||-----------------------|------------0-----------|

Chorus (2x):

E||------------------------------|-----------------------|
B||-----------------------10~----|-----------------------|
G||--------------------9---------|--------2--4------4----|
D||--2s--4--4-----/11------------|--2--4--2--4------4----|
A||--2s--4--4--------------------|--2--4--0--2------2----|
E||--0s--2--2--------------------|--0--2-----------------|


E||---------------------------|--------------------------|
B||---------------------------|--------------------------|
G||--6s--7--7--7--7--7--7--7--|--9--9--9--9--9--9--9--9--|
D||--6s--7--7--7--7--7--7--7--|--9--9--9--9--9--9--9--9--|
A||--4s--5--5--5--5--5--5--5--|--7--7--7--7--7--7--7--7--|
E||---------------------------|--------------------------|
Tap to rate this tab
 
# A B C D E F G H I J K L M N O P Q R S T U V W X Y Z