Song name
# A B C D E F G H I J K L M N O P Q R S T U V W X Y Z

Richie Kotzen - Remember tab

Sorry for this tab, this are the chords listen and play


-----------------------------------0------4----------------------------------|
-----------------------------------0------5------2---------------------------|
-----------------------------------6------4------2---------------------------|
-----------------------------------7------6------2------9h11-9-8-------------|
--------------------------444-666--7------6------x---------------9-7h9-7-----|
---12/----000-222-555-777------------------------2---------------------------|


--5----------  -------------------------------  ------------------------|
--7----------  ---7--------7------------------  --7--------7------------|
--6-----9----  ---7--------7---------4--------  --7--------7----4----7--|
--7-----9----  ---7--------7----4----5--------  --7--------7----5----7--|
--5-----7----  ---x--------9----4----5------5-  --x--------9----5----5--|
-------------  ---7---9---10----2----3--/7----  --7---9---10----3-------|


--0---------------|
--0---5---2-------|
--6---4---2---3---|
--7---6---2---4---|
--7---6---x---4---|
----------2-------|
Tap to rate this tab
# A B C D E F G H I J K L M N O P Q R S T U V W X Y Z