Song name
# A B C D E F G H I J K L M N O P Q R S T U V W X Y Z

Richie Kotzen - So Cold tab

----------------------------------------------------------------------------
                             So Cold INTRO - Richie Kotzen
----------------------------------------------------------------------------
Tabbed by: iKjetil
Email:

Tuning: e B G D A E 
(Richie seems to tune two halfsteps down. This is intepetation to standard
tuning)

e|--------------13--13--13-------------------------------------------------|
B|--10--10------13--13--13-------------------------------------------------|
G|--10--10-----------------------------------------------------------------|
D|----------12--------------10--10--10h12---------10--10h12----------------|
A|-----------------------------------------10h12---------------------------|
E|-------------------------------------------------------------------------|

e|-------------------------------------------------------------------------|
B|-------------------------------------------------------------------------|
G|--5--5-----5--x--x--5--x--5--5/7--7--X--X------7-------------------------|
D|--5--5-----5--x--x--5--x--3--3/5--5--X--X------5-------------------------|
A|--3--3--5--3--x--x--3--x--3--3/5---------------5-------------------------|
E|-------------------------------------------3-----------------------------|
         

************************************

| /   slide up
| \   slide down
| h   hammer-on
| p   pull-off
| ~   vibrato
| +   harmonic
| x   Mute note
| b   Bend
| pb  Pre-bend
| br  Bend release
| pbr Pre-bend release
| brb Bend release bend

************************************
Tap to rate this tab
 
# A B C D E F G H I J K L M N O P Q R S T U V W X Y Z