Song name
# A B C D E F G H I J K L M N O P Q R S T U V W X Y Z

Richie Ren - Dui Mian De Nu Hai tab

-------------------------------------------------------------------------------
			     Dui mian de nu hai - Richie Ren
-------------------------------------------------------------------------------
Tabbed by:im2dumb4u8
Email:billwjo@gmail.com

Tuning: standard (E-A-D-G-B-e)

solo after first chorus (played by harmonica)

e|---------------------------------------------------------------------------|
B|-----------------15-------------------15---17---------------------------15-|
G|--11/12--14--16--------11/12--14--16------------14/12-12-12------14--12----|
D|-------------------------------------------------------------14------------|
A|---------------------------------------------------------------------------|
E|---------------------------------------------------------------------------|

e|------------------------------------------------------------15/19-18-21-19-|
B|-----------------15-------------------15---17------------------------------|
G|--11/12--14--16--------11/12--14--16------------14/12-12-12----------------|
D|---------------------------------------------------------------------------|
A|---------------------------------------------------------------------------|
E|---------------------------------------------------------------------------|

End of song (also played by harmonica)


e|---------------------------------------------------------------------------|
B|--12--14^(15)--------------------------------------------------------------|
G|----------------12--9--12~~~~~---------------------------------------------|
D|---------------------------------------------------------------------------|
A|---------------------------------------------------------------------------|
E|---------------------------------------------------------------------------|
Tap to rate this tab
# A B C D E F G H I J K L M N O P Q R S T U V W X Y Z