Guitaretab - guitar tabs
Song name
# A B C D E F G H I J K L M N O P Q R S T U V W X Y Z

Richie Sambora - Rosie tab

Rosie

By Richie Sambora
Transcribed by Michael Mikkelsen (webdue@hotmail.com)

Intro:
                              X2
E|-----------------------------|
B|-----------------------------|
G|-----------------------------|
D|--9-9-x-9-5-5-x-5-7-7-x-7-9--|
A|--7-7-x-7-3-3-x-3-5-5-x-5-7--|
E|-----------------------------|

Fig 1:              Fig 2:

E|----------------| |-------------------------------------|
B|----------------| |--------------------14b--------------|
G|----------------| |----------------/14-14b-12-----------|
D|--9br--7--------| |---------------------------14-12-14--|
A|---------9-7-9--| |--5-7--5-7-5-------------------------|
E|----------------| |-------------7-----------------------|

Verse 1:
       X2
E|--0---|-------|
B|--0---|-------|
G|--2---|--2-2--|
D|--2---|--2-2--|
A|--0---|--0-0--|
E|------|-------|

Bridge:
                                      X2
E|----------0-------|------------------|
B|------3-----3-----|------------------|
G|----2---2-----2---|----------2-------|
D|--0-------------0-|------3-----3-----|
A|------------------|----3---3-----3---|
E|------------------|--1-------------1-|

E|------------------|------------------|
B|----------1-------|----------1-------|
G|------2-----2-----|------0-----0-----|
D|----2---2-----2---|----2---2-----2---|
A|--0-------------0-|--3-------------3-|
E|------------------|------------------|

E|------------------|------------------|
B|------------------|------------------|
G|--2---2---2---2---|--2---2---2---2---|
D|--2---2---2---2---|--2---2---2---2---|
A|--0---0---0---0---|--X---X---X---X---|
E|------------------|--3---3---3---3---|
[ Tab from: http://www.guitaretab.com/r/richie-sambora/145060.html ]
E|---------------------|
B|---------------------|
G|----------8----------|
D|------9-------9------|
A|----9---9---9---9----|
E|--7---------------7^-|

Chorus: (With intro)

E|----------------------------------------------|
B|----------------------------------------------|
G|----------------------------------------------|
D|------9--------5--------7--------9------5---7-|
A|----7--------3--------5--------7------3---5---|
E|--0--------0--------0--------0----------------|

E|----------------------------------|
B|----------------------------------|
G|----------------------------------|
D|------9--------5--------7----9^---|
A|----7--------3--------5------7^---|
E|--0--------0--------0--------0^---|

Verse 2:

E|----------------|-------------20/-|----------------|
B|----------------|-----------------|----------------|
G|----------------|-----------------|----------------|
D|----------------|-----------------|----------------|
A|--7--7--7--7----|--3--3--3--3-----|--5--5--5--5----|
E|--5--5--5--5----|--1--1--1--1-----|--3--3--3--3----|

E|----------------|
B|----------------|
G|--2^------------|
D|--2|------------|
A|--0|------------|
E|--------0-0-3-0-|

E|----------------|------------------|----------------|
B|----------------|------------------|----------------|
G|----------------|------------------|----------------|
D|----------------|--------------3^--|----------------|
A|--7--7--7--7----|--3--3--3---------|--5--5--5--5----|
E|--5--5--5--5----|--1--1--11-1-----|--3--3--3--3----|

E|----------------|
B|----------------|
G|--2^------------|
D|--2|------------|
A|--0|----------3-|
E|--------5-3-5---| 

Working on solos, until enjoy:)
Related for Rosie tab