Song name
# A B C D E F G H I J K L M N O P Q R S T U V W X Y Z

Richie Sambora - Every Road Leads Home To You tab

I think it's 100% correct...have fun :-)


|--15~--15-13-12-------------------15-----------------------------|
|----------------13~-----13-15-15b~~~~b15--13h15p13-----13-15-13--|
|---------------------14----------------------------14------------|
|-----------------------------------------------------------------|
|-----------------------------------------------------------------|
|-----------------------------------------------------------------|

|--15~--15-13-12-17~----------------------------------------------|
|-------------------------131515b-15b-15b15-13----13-----------|
|----------------------14-------------------------14--------------|
|-----------------------------------------------------------------|
|-----------------------------------------------------------------|
|-----------------------------------------------------------------|
Tap to rate this tab
# A B C D E F G H I J K L M N O P Q R S T U V W X Y Z