Song name
# A B C D E F G H I J K L M N O P Q R S T U V W X Y Z

Richie Sambora - Taking A Chance On The Wind tab

This is my first tab. Hope you like it.

E-|-17b19b17-14-------------------------------------------------------------------------|
B-|-------------17b19b17-14-------------------------------------------------------------|
G-|-------------------------16-16b18b16-14----14-16-16b18b16-14--------14-16-14-16b18vv-|
D-|----------------------------------------16-------------------16--14------------------|
A-|-------------------------------------------------------------------------------------|
E-|-------------------------------------------------------------------------------------|



E-|----------------------------------------------------------------------------|
B-|----------------------------------17-17-------------------------------------|
G-|-----------------14----14-16-16b18vvvvv-16b18b16-14----14-14----14-16-14vvv-|
D-|----h14h16h14h16----16------------------------------16-------16-------------|
A-|-16-------------------------------------------------------------------------|
E-|----------------------------------------------------------------------------|



E-|-------------------------------------------------------------------------------|
B-|-17b19vvvv-17b20vvvv-17b19vvvv-17-17b19b17-------------------------------------|
G-|-------------------------------------------16-16b18b16-14----14-16b18b16-14vvv-|
D-|----------------------------------------------------------16-------------------|
A-|-------------------------------------------------------------------------------|
E-|-------------------------------------------------------------------------------|
Tap to rate this tab
 
# A B C D E F G H I J K L M N O P Q R S T U V W X Y Z