Guitaretab - guitar tabs
Song name
# A B C D E F G H I J K L M N O P Q R S T U V W X Y Z

Richie Sambora - If God Was A Woman tab

If God Was A Woman
------------------
From the album Undiscovered Soul
Written by Richie sambora
Transcribed by Michael Mikkelsen (webdue@hotmail.com)

Now I think itís time for a little track from richieīs second album Undiscovered Soul. 
are no special effects in the song just play! Hope you enjoy it.
-----------------------------------------------------------------
There are two guitars:

Gtr. 1 (standard tuning) Distortion
Gtr. 2 (standard tuning) I think second guitar just use light distortion!
-----------------------------------------------------------------

Main riff:

E|------------------------------------------|
B|------------------------------------------|
G|------------------------------------------|
D|------------------------------------------|
A|---------------5~-----5-------------------|
E|---0-/-4---7--------------7-/-3b---0------|

Fig 1.

E|--------|
B|--------|
G|--------|
D|--------|
A|--------|
E|---3b---|

Fig 2.

E|---------------------------|
B|---------------------------|
G|-----12-14-14b---14b-12----|
D|--14--------------------14-|
A|---------------------------|
E|---------------------------|

I just write the chords so listen to the strumming itís not that hard :D!

    E   A   B Bsus4
   -0- -0- -2- -2-|
   -0- -2- -4- -5-|
   -1- -2- -4- -4-|
   -2- -2- -4- -4-|
   -2- -0- -2- -2-|
   -0- --- --- ---|

Intro:

Gtr. 1: |E|A|B|Bsus4|Main riff|X2
Gtr. 2: |E|A|B|Bsus4|I donít know what to play here I just play E|X2

Verse:

Gtr. 1: |Donít play in verse|
Gtr. 2: |E|A|B|E|A|E| Fig 1. (First 3 times)| X4

Chorus:

Gtr. 1: |B|A||Main riff|
Gtr. 2: |B|A|I think you he plays E under the riff!|

Solo: The solo was very hard to tab and its not the same as Richie plays but close I 
if you donít like it tab it you self! (The verse goes under the solo!)
[ Tab from: http://www.guitaretab.com/r/richie-sambora/74505.html ]
                                     Not sure a bout this part
                                    |----------------------------------|
E|--------7-7----7-7----7-7----7-7-------------------------------------|
B|--------7-7----7-7----7-7----7-7-------------------------------------|
G|--5b--5b-----5b-----5b-----5b------7--7-5----7-------7b--7-5-3-------|
D|-----------------------------------7------7b-7-7-5-7-7b--7-----5-3/--|
A|---------------------------------------------------------------------|
E|---------------------------------------------------------------------|

E|----------------------------------------------------|
B|----------------------------------------------------|
G|---------/12-9-12-12-9-12-12-9-12/14-14b--12-9-12-9-|
D|--/4-7-4-/12-9-12-12-9-12-12-9-12/14-14b--12-9-12-9-|
A|----------------------------------------------------|
E|----------------------------------------------------|

E|------12-12----12-12--------------------12~-12-------12-------12-------12-------|
B|------12-12----12-12--------------------12~----15-12----15-12----15-12----15-12-|
G|--14b------14b------14b-12h14p12----12~-----------------------------------------|
D|---------------------------------14---------------------------------------------|
A|---------------------------------14---------------------------------------------|
E|--------------------------------------------------------------------------------|

E|--------------------------------------------------|
B|--------------------------------------------------|
G|-14b-12-----12------------------------------------|
D|--------14--12-14~-12h14~-14-12-12-9-9-7--5-------|
A|--------------------------------------------7h5p7-|
E|--------------------------------------------------|

Solo 2 A:                            Solo 2 B:

E|-----7-7----7-7----7-7------------ ------12-----12-----12-----12-|
B|-----7-7----7-7----7-7------------ ------12-----12-----12-----12-|
G|--5b-----5b-----5b-----5b-3---3-5- --14b----14b----14b----14b----|
D|----------------------------5----- ------------------------------|
A|---------------------------------- ------------------------------|
E|---------------------------------- ------------------------------|

E|------12-----12-----12-----12-17~-15~-15-12---------------------------------|
B|------12-----12-----12-----12---------------15-12---------------------------|
G|--14b----14b----14b----14b------------------------14-12-14--14b-12----------|
D|------------------------------------------------------------14b-12-14-12-14-|
A|-------------------------------------------------------------------14-12-14-|
E|----------------------------------------------------------------------------|

Solo 3:

E|-----2----2----2------------------------|
B|-----2----2----2------------------------|
G|--4b---4b---4b---4b-2---2-4brb-2---2----|
D|----------------------4----------4---4~-|
A|----------------------------------------|
E|----------------------------------------|
Related for If God Was A Woman tab