Song name
# A B C D E F G H I J K L M N O P Q R S T U V W X Y Z

Richy Nix - In My Head tab

Tabbed by ear by Johannes Kholod.
Tuning: D# (Half step down)

Guitar Covers by me on youtube:
http://www.youtube.com/user/Johannesx96


0:10

D#|--------------------------------------------------------------------------------|
A#|--------------------------------------------------------------------------------|
F#|--------------------------------------------------------------------------------|
C#|-----------------------7--7---7---7--7-----------------------9--9---9---9--9----|
G#|--4---4---4---4--4--4--5--5---5---5--5--7---7---7---7--7--7--7--7---7---7--7----|
D#|--2---2---2---2--2--2-------------------5---5---5---5--5--5---------------------|

D#|--------------------------------------------------------------------------------|
A#|--------------------------------------------------------------------------------|
F#|--------------------------------------------------------------------------------|
C#|-----------------------7--7---7---7--7-----------------------9--9---9---9--9----|
G#|--4---4---4---4--4--4--5--5---5---5--5--7---7---7---7--7--7--7--7---7---7--7----|
D#|--2---2---2---2--2--2-------------------5---5---5---5--5--5---------------------|


0:20

D#|--------------------------------------------------------------------------------|
A#|--------------------------------------------------------------------------------|
F#|--------------------------------------------------------------------------------|
C#|--------------------------------------------------------------------------------|
G#|--4--4----4--4----4---2---4--4----4--4----4---2---------------------------------|
D#|--2--2----2--2----2---0---2--2----2--2----2---0---------------------------------|

D#|--------------------------------------------------------------------------------|
A#|--------------------------------------------------------------------------------|
F#|--------------------------------------------------------------------------------|
C#|--7--7----7--7----7---6---9--9----9--9------------------------------------------|
G#|--5--5----5--5----5---4---7--7----7--7----7--7--9---2---------------------------|
D#|------------------------------------------------7---0---------------------------|

D#|--------------------------------------------------------------------------------|
A#|--------------------------------------------------------------------------------|
F#|--------------------------------------------------------------------------------|
C#|--------------------------------------------------------------------------------|
G#|--4--4----4--4----4---2---4--4----4--4----4---2---------------------------------|
D#|--2--2----2--2----2---0---2--2----2--2----2---0---------------------------------|

D#|--------------------------------------------------------------------------------|
A#|--------------------------------------------------------------------------------|
F#|--------------------------------------------------------------------------------|
C#|--7--7----7--7----7---6---4--4----4--4----------4--4--6--6----------------------|
G#|--5--5----5--5----5---4---2--2----2--2----2--2--2--2--4--4----------------------|
D#|--------------------------------------------------------------------------------|

D#|--------------------------------------------------------------------------------|
A#|--------------------------------------------------------------------------------|
F#|--------------------------------------------------------------------------------|
C#|--------------------------------------------------------------------------------|
G#|--4--4----4--4----4---2---4--4----4--4----4---2---------------------------------|
D#|--2--2----2--2----2---0---2--2----2--2----2---0---------------------------------|

D#|--------------------------------------------------------------------------------|
A#|--------------------------------------------------------------------------------|
F#|--------------------------------------------------------------------------------|
C#|--7--7----7--7----7---6---9--9----9--9------------------------------------------|
G#|--5--5----5--5----5---4---7--7----7--7----------2---2---------------------------|
D#|------------------------------------------7--7--0---0---------------------------|


0:52

D#|--------------------------------------------------------------------------------|
A#|--------------------------------------------------------------------------------|
F#|--------------------------------------------------------------------------------|
C#|--------------------------------------------------------------------------------|
G#|--4--4--------------4--4--------------4---2-------------------------------------|
D#|--2--2--2--2--2--2--2--2--2--2--2--2--2---0-------------------------------------|

D#|--------------------------------------------------------------------------------|
A#|--------------------------------------------------------------------------------|
F#|--------------------------------------------------------------------------------|
C#|--------------------------------------------------------------------------------|
G#|--4--4--------------4--4--------------4---2-------------------------------------|
D#|--2--2--2--2--2--2--2--2--2--2--2--2--2---0-------------------------------------|

D#|--------------------------------------------------------------------------------|
A#|--------------------------------------------------------------------------------|
F#|--------------------------------------------------------------------------------|
C#|--7--7--------------7--7--------------7---6-------------------------------------|
G#|--5--5--5--5--5--5--5--5--5--5--5--5--5---4-------------------------------------|
D#|--------------------------------------------------------------------------------|

D#|--------------------------------------------------------------------------------|
A#|--------------------------------------------------------------------------------|
F#|--------------------------------------------------------------------------------|
C#|--4--4--------------4--4--------------4-----------------------------------------|
G#|--2--2--2--2--2--2--2--2--2--2--2--2--2---2-------------------------------------|
D#|------------------------------------------0-------------------------------------|


1:01

D#|--------------------------------------------------------------------------------|
A#|--------------------------------------------------------------------------------|
F#|--------------------------------------------------------------------------------|
C#|-----------------------7--7---7---7--7-----------------------9--9---9---9--9----|
G#|--4---4---4---4--4--4--5--5---5---5--5--7---7---7---7--7--7--7--7---7---7--7----|
D#|--2---2---2---2--2--2-------------------5---5---5---5--5--5---------------------|

D#|--------------------------------------------------------------------------------|
A#|--------------------------------------------------------------------------------|
F#|--------------------------------------------------------------------------------|
C#|-----------------------7--7---7---7--7-----------------------9--9---9---9--9----|
G#|--4---4---4---4--4--4--5--5---5---5--5--7---7---7---7--7--7--7--7---7---7--7----|
D#|--2---2---2---2--2--2-------------------5---5---5---5--5--5---------------------|

D#|--------------------------------------------------------------------------------|
A#|--------------------------------------------------------------------------------|
F#|--------------------------------------------------------------------------------|
C#|-----------------------7--7---7---7--7-----------------------9--9---9---9--9----|
G#|--4---4---4---4--4--4--5--5---5---5--5--7---7---7---7--7--7--7--7---7---7--7----|
D#|--2---2---2---2--2--2-------------------5---5---5---5--5--5---------------------|

D#|--------------------------------------------------------------------------------|
A#|--------------------------------------------------------------------------------|
F#|--------------------------------------------------------------------------------|
C#|-----------------------7--7---7---7--7-----------------------9--9---9---9--9----|
G#|--4---4---4---4--4--4--5--5---5---5--5--7---7---7---7--7--7--7--7---7---7--7----|
D#|--2---2---2---2--2--2-------------------5---5---5---5--5--5---------------------|


1:22

D#|--------------------------------------------------------------------------------|
A#|--------------------------------------------------------------------------------|
F#|--------------------------------------------------------------------------------|
C#|--------------------------------------------------------------------------------|
G#|--4--4----4--4----4---2---4--4----4--4----4---2---------------------------------|
D#|--2--2----2--2----2---0---2--2----2--2----2---0---------------------------------|

D#|--------------------------------------------------------------------------------|
A#|--------------------------------------------------------------------------------|
F#|--------------------------------------------------------------------------------|
C#|--7--7----7--7----7---6---9--9----9--9------------------------------------------|
G#|--5--5----5--5----5---4---7--7----7--7----7--7--9---2---------------------------|
D#|------------------------------------------------7---0---------------------------|

D#|--------------------------------------------------------------------------------|
A#|--------------------------------------------------------------------------------|
F#|--------------------------------------------------------------------------------|
C#|--------------------------------------------------------------------------------|
G#|--4--4----4--4----4---2---4--4----4--4----4---2---------------------------------|
D#|--2--2----2--2----2---0---2--2----2--2----2---0---------------------------------|

D#|--------------------------------------------------------------------------------|
A#|--------------------------------------------------------------------------------|
F#|--------------------------------------------------------------------------------|
C#|--7--7----7--7----7---6---4--4----4--4----------4---6---------------------------|
G#|--5--5----5--5----5---4---2--2----2--2----2--2--2---4---------------------------|
D#|--------------------------------------------------------------------------------|


1:42

D#|--------------------------------------------------------------------------------|
A#|--------------------------------------------------------------------------------|
F#|--------------------------------------------------------------------------------|
C#|--------------------------------------------------------------------------------|
G#|--4--4--------------4--4--------------4---2-------------------------------------|
D#|--2--2--2--2--2--2--2--2--2--2--2--2--2---0-------------------------------------|

D#|--------------------------------------------------------------------------------|
A#|--------------------------------------------------------------------------------|
F#|--------------------------------------------------------------------------------|
C#|--------------------------------------------------------------------------------|
G#|--4--4--------------4--4--------------4---2-------------------------------------|
D#|--2--2--2--2--2--2--2--2--2--2--2--2--2---0-------------------------------------|

D#|--------------------------------------------------------------------------------|
A#|--------------------------------------------------------------------------------|
F#|--------------------------------------------------------------------------------|
C#|--7--7--------------7--7--------------7---6-------------------------------------|
G#|--5--5--5--5--5--5--5--5--5--5--5--5--5---4-------------------------------------|
D#|--------------------------------------------------------------------------------|

D#|--------------------------------------------------------------------------------|
A#|--------------------------------------------------------------------------------|
F#|--------------------------------------------------------------------------------|
C#|--4--4--------------4--4--------------4---4-------------------------------------|
G#|--2--2--2--2--2--2--2--2--2--2--2--2--2---2-------------------------------------|
D#|--------------------------------------------------------------------------------|

D#|--------------------------------------------------------------------------------|
A#|--------------------------------------------------------------------------------|
F#|--------------------------------------------------------------------------------|
C#|--------------------------------------------------------------------------------|
G#|--4--4--------------4--4--------------4---2-------------------------------------|
D#|--2--2--2--2--2--2--2--2--2--2--2--2--2---0-------------------------------------|

D#|--------------------------------------------------------------------------------|
A#|--------------------------------------------------------------------------------|
F#|--------------------------------------------------------------------------------|
C#|--------------------------------------------------------------------------------|
G#|--4--4--------------4--4--------------4---2-------------------------------------|
D#|--2--2--2--2--2--2--2--2--2--2--2--2--2---0-------------------------------------|

D#|--------------------------------------------------------------------------------|
A#|--------------------------------------------------------------------------------|
F#|--------------------------------------------------------------------------------|
C#|--7--7--------------7--7--------------7---6-------------------------------------|
G#|--5--5--5--5--5--5--5--5--5--5--5--5--5---4-------------------------------------|
D#|--------------------------------------------------------------------------------|

D#|--------------------------------------------------------------------------------|
A#|--------------------------------------------------------------------------------|
F#|--------------------------------------------------------------------------------|
C#|--9--9--------------9--9--------------11-11-11----------------------------------|
G#|--7--7--7--7--7--7--7--7--7--7--7--7--9--9--9-----------------------------------|
D#|--------------------------------------------------------------------------------|


2:03

D#|--------------------------------------------------------------------------------|
A#|--------------------------------------------------------------------------------|
F#|--------------------------------------------------------------------------------|
C#|-----------------------7--7---7---7--7-----------------------9--9---9---9--9----|
G#|--4---4---4---4--4--4--5--5---5---5--5--7---7---7---7--7--7--7--7---7---7--7----|
D#|--2---2---2---2--2--2-------------------5---5---5---5--5--5---------------------|

D#|--------------------------------------------------------------------------------|
A#|--------------------------------------------------------------------------------|
F#|--------------------------------------------------------------------------------|
C#|-----------------------7--7---7---7--7-----------------------9--9---9---9--9----|
G#|--4---4---4---4--4--4--5--5---5---5--5--7---7---7---7--7--7--7--7---7---7--7----|
D#|--2---2---2---2--2--2-------------------5---5---5---5--5--5---------------------|

D#|--------------------------------------------------------------------------------|
A#|--------------------------------------------------------------------------------|
F#|--------------------------------------------------------------------------------|
C#|-----------------------7--7---7---7--7-----------------------9--9---9---9--9----|
G#|--4---4---4---4--4--4--5--5---5---5--5--7---7---7---7--7--7--7--7---7---7--7----|
D#|--2---2---2---2--2--2-------------------5---5---5---5--5--5---------------------|

D#|--------------------------------------------------------------------------------|
A#|--------------------------------------------------------------------------------|
F#|--------------------------------------------------------------------------------|
C#|-----------------------7--7---7---7--7-----------------------9--9---9---9--9----|
G#|--4---4---4---4--4--4--5--5---5---5--5--7---7---7---7--7--7--7--7---7---7--7----|
D#|--2---2---2---2--2--2-------------------5---5---5---5--5--5---------------------|


2:23

D#|--------------------------------------------------------------------------------|
A#|-------------------------5--5--5--5--5--5---------------------------------------|
F#|--------------------------------------------------------------------------------|
C#|--------------------------------------------------------------------------------|
G#|--4-4-4---4-4-4---4---4---------------------------------------------------------|
D#|--2-2-2---2-2-2---2---2---------------------------------------------------------|

D#|--------------------------------------------------------------------------------|
A#|-------------------------4--5--4--5--4--5--4------------------------------------|
F#|--------------------------------------------------------------------------------|
C#|--------------------------------------------------------------------------------|
G#|--4-4-4---4-4-4---4---4---------------------------------------------------------|
D#|--2-2-2---2-2-2---2---2---------------------------------------------------------|

D#|--------------------------------------------------------------------------------|
A#|-------------------------5--5--5--5--5--5---------------------------------------|
F#|--------------------------------------------------------------------------------|
C#|--------------------------------------------------------------------------------|
G#|--4-4-4---4-4-4---4---4---------------------------------------------------------|
D#|--2-2-2---2-2-2---2---2---------------------------------------------------------|

D#|--------------------------------------------------------------------------------|
A#|-------------------------4--5--4--5--4--5--4------------------------------------|
F#|--------------------------------------------------------------------------------|
C#|--------------------------------------------------------------------------------|
G#|--4-4-4---4-4-4---4---4---------------------------------------------------------|
D#|--2-2-2---2-2-2---2---2---------------------------------------------------------|

D#|--------------------------------------------------------------------------------|
A#|--------------------------------------------------------------------------------|
F#|--------------------------------------------------------------------------------|
C#|--------------------------------------------------------------------------------|
G#|--4-4-4---4-4-4---4---4-4-4--------4-4-4---4-4-4---4-4-4-4-4---4-4-4------------|
D#|--2-2-2---2-2-2---2---2-2-2--------2-2-2---2-2-2---2-2-2-2-2---2-2-2------------|

D#|--------------------------------------------------------------------------------|
A#|--------------------------------------------------------------------------------|
F#|--------------------------------------------------------------------------------|
C#|--------------------------------------------------------------------------------|
G#|--4-4-4---4-4-4---4---4-4-4--------4-4-4---4-4-4---4-4-4-4-4---4-4-4------------|
D#|--2-2-2---2-2-2---2---2-2-2--------2-2-2---2-2-2---2-2-2-2-2---2-2-2------------|


2:44

D#|--------------------------------------------------------------------------------|
A#|--------------------------------------------------------------------------------|
F#|--------------------------------------------------------------------------------|
C#|--------------------------------------------------------------------------------|
G#|--4---4---4--12----11--4---4---4--12---11---------------------------------------|
D#|--2---2---2--10----9---2---2---2--10---9----------------------------------------|

D#|--------------------------------------------------------------------------------|
A#|--------------------------------------------------------------------------------|
F#|--------------------------------------------------------------------------------|
C#|--------------------------------------------------------------------------------|
G#|--4---4---4--12----11--4---4---4--4--11-11-7----4-------------------------------|
D#|--2---2---2--10----9---2---2---2--2--9--9--5----2-------------------------------|


2:56

D#|--------------------------------------------------------------------------------|
A#|--5--7----5-7-3----3-5-5--3--2--0--2--------------------------------------------|
F#|-----------------------------------------6--------------------------------------|
C#|--------------------------------------7-----7----4------------------------------|
G#|------------------------------------------------------7--5--4-------------------|
D#|---------------------------------------------------------------7--5--4-5-4------|


3:06

D#|--------------------------------------------------------------------------------|
A#|--------------------------------------------------------------------------------|
F#|--------------------------------------------------------------------------------|
C#|-----------------------7--7---7---7--7-----------------------9--9---9---9--9----|
G#|--4---4---4---4--4--4--5--5---5---5--5--7---7---7---7--7--7--7--7---7---7--7----|
D#|--2---2---2---2--2--2-------------------5---5---5---5--5--5---------------------|

D#|--------------------------------------------------------------------------------|
A#|--------------------------------------------------------------------------------|
F#|--------------------------------------------------------------------------------|
C#|-----------------------7--7---7---7--7-----------------------9--9---9---9--9----|
G#|--4---4---4---4--4--4--5--5---5---5--5--7---7---7---7--7--7--7--7---7---7--7----|
D#|--2---2---2---2--2--2-------------------5---5---5---5--5--5---------------------|

D#|--------------------------------------------------------------------------------|
A#|--------------------------------------------------------------------------------|
F#|--------------------------------------------------------------------------------|
C#|-----------------------7--7---7---7--7-----------------------9--9---9---9--9----|
G#|--4---4---4---4--4--4--5--5---5---5--5--7---7---7---7--7--7--7--7---7---7--7----|
D#|--2---2---2---2--2--2-------------------5---5---5---5--5--5---------------------|

D#|--------------------------------------------------------------------------------|
A#|--------------------------------------------------------------------------------|
F#|--------------------------------------------------------------------------------|
C#|-----------------------7--7---7---7--7-----------------------9--9---9---9--9----|
G#|--4---4---4---4--4--4--5--5---5---5--5--7---7---7---7--7--7--7--7---7---7--7----|
D#|--2---2---2---2--2--2-------------------5---5---5---5--5--5---------------------|


3:27

D#|--------------------------------------------------------------------------------|
A#|--------------------------------------------------------------------------------|
F#|--------------------------------------------------------------------------------|
C#|-------7---------9---------7---------9------------------------------------------|
G#|--4----5----7----7----4----5----7----7------------------------------------------|
D#|--2---------5---------2---------5-----------------------------------------------|

D#|--------------------------------------------------------------------------------|
A#|--------------------------------------------------------------------------------|
F#|--------------------------------------------------------------------------------|
C#|-------7---------9---------7---------9----4-------------------------------------|
G#|--4----5----7----7----4----5----7----7----2-------------------------------------|
D#|--2---------5---------2---------5-----------------------------------------------|

The End.
Tap to rate this tab
 
# A B C D E F G H I J K L M N O P Q R S T U V W X Y Z