Song name
# A B C D E F G H I J K L M N O P Q R S T U V W X Y Z

Rick Derringer - Real American tab

Real American-Rick Derringer
HULK HOGAN!!!!!!!!!!!!
1985

my first tab tell me what ya think :D

Standard Tuning

\=slide down
/=slide up
~=ring
h=hammer on
p=pull off
pm=palm mute
epm=end palm mute
b=bend
( )=bend to
rb=release bend


intro

e-------------------------------------------------|
B-------------------------------------------------|
G-9--7--6--4--9--9--7--9--------9\7-6-4--2-2-4-4~-|
D-7--5--4--2--7--7--5--7--------7\5-4-2--0-0-2-2~-|
A--------------------------0----------------------|
E-------------------------------------------------|


verse

e------------------------------------------------------------------------|
B------------------------------------------------------------------------|
G------------------------------------------------------------------------|
D-2-------------------------------------------9-7-6-4--9-9-7-9-----------|
A-0--pm-0-0-0-0-0-0-0-0-0-0-0-0-0-0-0-0-0-epm-7-5-4-2--7-7-5-7-----------|
E------------------------------------------------------------------------|
When it comes crashing down and it hurts inside...

e------------------------------------------------------------------------|
B------------------------------------------------------------------------|
G------------------------------------------------------------------------|
D--2-----------------------------------------9-7-6-4--9-9-7-9------------|
A--0--pm-0-0-0-0-0-0-0-0-0-0-0-0-0-0-0-0-epm-7\5-4-2--7-7-5-7------------|
E------------------------------------------------------------------------|

pre-chorus

e-----------------------------------------------------------------------|
B-----------------------------------------------------------------------|
G-----------------------------------------------------------------------|
D----5-5-5-5-5-5-5-5-7-7-7-7-7-7-7-7-5-5-5-5-5-5-5-5------7-7-7/9-------|
A-pm-3-3-3-3-3-3-3-3-5-5-5-5-5-5-5-5-3-3-3-3-3-3-3-3-epm--5-5-5/7-------|
E-----------------------------------------------------------------------|
If you hurt my friends, then you hurt my pride...

chorus

e---------------------------------------------------------------------------|
B------------------------------3--------------------------------------------|
G------------------------------0--------------------------------------------|
D-2~-----------------------------2~-----------------------------------------|
A-0~------pm-0-0-0-0-0-0-0-0-----0~---------------------0-0-0-0-0-0-0-0-----|
E------------------------------3--------------------------------------------|
  I am a real american          fight for the rights of every man...

e---------------------------------------------------------------------------|
B-3~------------------------------------------------------------------------|
G-2~------------------------------------------------------------------------|
D-0~-----------0-0-0-0-0-0-0-0------------5----5------7------7----7---9-----|
A------------------------------------0h2--3----3------5------5----5---7-----|
E---------------------------------------------------------------------------|

  I am a real american         fight for what's right, fight for your life

repeat intro

repeat verse

repeat chorus

guitar solo

e-------15/17-17~-17~-17p15-17-17--20--17--15-------------------------------|
B-15p12------------------------------------15b(17)-(17)-(17)-(17)-(17)-(17)-|
G---------------------------------------------------------------------------|
D---------------------------------------------------------------------------|
A---------------------------------------------------------------------------|
E---------------------------------------------------------------------------|

e---------------------------------------------------------------------------|
B--(17)-(17)----15b(17)rb15--13--------8--10-10------8--10-10----8-10-10----|
G-------------------------------14~--9------------9-------------9-----------|
D---------------------------------------------------------------------------|
A---------------------------------------------------------------------------|
E---------------------------------------------------------------------------|

e----------------------------------------------------------------------------|
B-----8-10-10----8-10-10-----8-10-10----------------------------------13-----|
G---9----------9-----------9-----------7h9p7--5h7p5--2~--14p12--14-14----14~-|
D----------------------------------------------------------------------------|
A----------------------------------------------------------------------------|
E----------------------------------------------------------------------------|

repeat pre-chorus

repeat chorus till the end
Tap to rate this tab
 
# A B C D E F G H I J K L M N O P Q R S T U V W X Y Z