Song name
# A B C D E F G H I J K L M N O P Q R S T U V W X Y Z

Rick Derringer - Unsung Hero Of The Blues tab

-------------------------------------------------------------------------------
		    Unsung Hero of the Blues - by Rick Derringer
-------------------------------------------------------------------------------
Tabbed by: Andy (yalaki)
Email: yalaki@hotmail.com

The intro solo to Rick Derringer's "Unsung Hero of the Blues" from the 1994 album "Electra Blues".

Maybe at a later date I'll add more of the song but for now this is all I will do.

Tuning: Standard

******
Intro:
******

e|--------------------------------|----------------------------------------------------|
B|--------------------------------|----------------------------------------------------|
G|-----13-15-18p15----17b18\x-----|---20b22--20p18h20--20b22--18--15-15---18p15--------|
D|--15----------------------------|---------------------------------------------18p15--|
A|--------------------------------|----------------------------------------------------|
E|--------------------------------|----------------------------------------------------|

e|----------------------------------|-----------------------------------------|
B|----------------------------------|---16b18--16p14h16--16b18---14-11-11-----|
G|------13-15-18p15----18p15--------|-----------------------------------------|
D|--15-----------------------18p15--|-----------------------------------------|
A|----------------------------------|-----------------------------------------|
E|----------------------------------|-----------------------------------------|

e|---------------------------------------------------------------------------|
B|--11-----------------------------------------------------------------------|
G|---------------------------------------------------------------------------|
D|------15-13b-11--------13-11-----------------------------------------------|
A|-----------------13-11-------13-11-13--------------------------------------|
E|---------------------------------------------------------------------------|

e|------------------------------------------------------------------------------------------|
B|--------14-16h19b21--16-14----------------------------------------------------------------|
G|--13h15--------------------15---15------------15-18-----b19--15---------------------------|
D|-----------------------------------15~--13/15-------------------15------------------------|
A|-------------------------------------------------------------------18p16h18p16h18b-p16----|
E|---------------------------------------------------------------------------------------18-|

e|---------------------------------|
B|---------------------------------|
G|---------------------------------|
D|---------------------------------|
A|-18p16h18p16h18b-p16-------------|
E|----------------------18---------|


| /  slide up
| \  slide down
| h  hammer-on
| p  pull-off
| ~  vibrato
| +  harmonic
| x      Mute note

| 10b12  Bend note from 10th fret up a whole tone (destination note is 
         specified)

| 13b    Bend note from 13th fret up only part of a semi-tone (destination                   
         note is unspecified)

| r      Release bend
| pb     Prebend note
===============================================================================
Tap to rate this tab
# A B C D E F G H I J K L M N O P Q R S T U V W X Y Z