Song name
# A B C D E F G H I J K L M N O P Q R S T U V W X Y Z

Rick Founds - Lord I Lift Your Name On High tab

Tabbed by: Graham Choo
Email: da_tweens@yahoo.co.uk
Tuning:
Intro:
   G   C9 Dsus C9  G   C9 Dsus C9
e|-3---3---3---3---3---3---3---3---------------------------------|
B|-3---3---3---3---3---3---3---3---------------------------------|
G|-0---0---2---0---0---0---2---0---------------------------------|
D|-0---2---0---2---0---2---0---2---------------------------------|
A|-2---3-------3---2---3-------3---------------------------------|
E|-3---------------3---------------------------------------------| 
Verse:
   G   C9 Dsus C9  G   C9 Dsus C9  G   C9 Dsus C9  G   C9 Dsus C9
e|-3---3---3---3---3---3---3---3---3---3---3---3---3---3---3---3-|
B|-3---3---3---3---3---3---3---3---3---3---3---3---3---3---3---3-|
G|-0---0---2---0---0---0---2---0---0---0---2---0---0---0---2---0-|
D|-0---2---0---2---0---2---0---2---0---2---0---2---0---2---0---2-|
A|-2---3-------3---2---3-------3---2---3-------3---2---3-------3-|
E|-3---------------3---------------3---------------3-------------| 
Chorus:
   G   C9 Dsus C9  G   C9 Dsus C9  G   C9 Dsus B7  Em  C9 Dsus
e|-3---3---3---3---3---3---3---3---3---3---3---2---0---3---3-----|
B|-3---3---3---3---3---3---3---3---3---3---3---0---0---3---3-----|
G|-0---0---2---0---0---0---2---0---0---0---2---2---0---0---2-----|
D|-0---2---0---2---0---2---0---2---0---2---0---1---2---2---0-----|
A|-2---3-------3---2---3-------3---2---3-------2---2---3---------|
E|-3---------------3---------------3---------------0-------------| 
Interlude:
   G   C9  D   C9
e|-3---3---3---3-------------------------------------------------|
B|-3---3---3---3-------------------------------------------------|
G|-0---0---0h2-0-------------------------------------------------|
D|-0---2---0---2-------------------------------------------------|
A|-2---3-------3-------------------------------------------------|
E|-3-------------------------------------------------------------| 

Verse

Chorus

Interlude

Verse

Chorus

Outro:
   G   C9  D   C9  G
e|-3---3---3---3---3---------------------------------------------|
B|-3---3---3---3---3---------------------------------------------|
G|-0---0---0---0---0---------------------------------------------|
D|-0---2---0---2---0---------------------------------------------|
A|-2---3-------3---2---------------------------------------------|
E|-3---------------3---------------------------------------------| 

Tap to rate this tab
# A B C D E F G H I J K L M N O P Q R S T U V W X Y Z