Guitaretab - guitar tabs
Song name
# A B C D E F G H I J K L M N O P Q R S T U V W X Y Z

Rick James - Ghetto Life tab

These are the 2 main parts of the song.   99 % sure this is good.

Rick James fans enjoy

INTRO and CHORUS

---------------------------------------------------------------------------|
---------------------------------------------------------------------------|
---------------------------------------------------------------------------|
-------3---5-3-5-3----0-3-3-2-3-2-3-------5-3----5-3-5-3---8-8-8-7-5-3-5---|
---3-5------------------------------3-4-5----------------------------------|
---------3---------3--------------------------3----------3-----------------|
[ Tab from: http://www.guitaretab.com/r/rick-james/188485.html ]
---------------------------------------------------------------------------|
---------------------------------------------------------------------------|
---------------------------------------------------------------------------|
-------3---5-3-5-3----0-3-3-2-3-2-3-------5-3----5-3-5-3---8-8-8-7-5-3-5---|
---3-5------------------------------3-4-5----------------------------------|
---------3---------3--------------------------3----------3-----------------|

-----------------------------------------------------------|
-----------------------------------------------------------|
-----------------------------------------------------------|
-------3---5-3-5-3----0-3-3-2-3-2-3-------5-3----5-3-5-3---|- Singing Starts
---3-5------------------------------3-4-5------------------|
---------3---------3--------------------------3----------3-|

VERSE

-----------------------------------------------------------------------------|
-----------------------------------------------------------------------------|
-----------------------------------------------------------------------------|
-----------------------------------------------------------------------------|
-----------------------------------------------------------------------------|
0-1-2-3-3-1-3-1-3-5----0-1-2-3-3-1-3-1-3-1-----------------------------------|

These 2 verse riff’s are repeated over and over throughout the song, as is the main hook above.
Related for Ghetto Life tab
×
Ghetto Life