Song name
# A B C D E F G H I J K L M N O P Q R S T U V W X Y Z

Rick Price - If You Were My Baby tab

Title: If You Were My Baby
Artiste: Rick Price
Album: Songs From The Heart
Tabbed by: SH Leong
Learnt this song from a friend called Azzam. Have finally tabbed it out after wanting to 
do so for quite some time. It sounds quite the same though not exactly... but it's good 
enough for me.
Figure out the rythmn by listening to the song.
Enjoy playing this beautiful tune. =)
# Note that there are minor differences in each version of the chorus...

x - Slap/Pat Strings

INTRO
*****
E|-------------x-------x---x-----------x-------x---x-|
B|-------------x-----3-x-3-x---------3-x-----3-x-3-x-|
G|-----2-------x---4-4-x-2-x-----0-2-2-x---4-4-x-2-x-|
D|-2h4---2-0-0-x-0-----x-0-x-0-4-------x-0-----x-0-x-|
A|-------------x-------x---x-----------x-------x---x-|
E|-------------x-------x---x-----------x-------x---x-|

=====================================================================
MAIN VERSE
**********

Play Twice

E|---------------x-------x----x-------x----x-------x-------x-------x-|
B|---------------x-----3-x-3--x-----3-x-3--x-----3-x-----3-x-----3-x-|
G|-------2-------x---4-4-x-2--x---4-4-x-2--x---4-4-x---2-2-x---2-2-x-|
D|-0-2h4---2-0-0-x-0-----x-0--x-0-----x-0--x-0-----x-0-----x-0-----x-|
A|---------------x-------x----x-------x----x-------x-------x-------x-|
E|---------------x-------x----x-------x----x-------x-------x-------x-|

E|-----------0-x---x------------x-------x----x-|
B|-0-------3---x-3-x---2-2-3-2--x-----3-x-3--x-|
G|-0-----0-----x-0-x---2-2-2-2--x---4-4-x-2--x-|
D|-----4-------x-0-x---2--------x-0-----x-0--x-|
A|-------------x---x-0----------x-------x----x-|
E|---0---------x-3-x------------x-------x----x-|


=====================================================================
CHORUS
******

E|-----x-----x-----0-x-------x-------x-------x-------x-----x-------x-|
B|-3-3-x-3-3-x-----3-x-----2-x-----2-x-----3-x-----3-x-3---x-----3-x-|
G|-2-2-x-2-2-x---2---x---2-2-x---2-2-x---4-4-x---4-4-x-3---x---3-3-x-|
D|-0---x-0---x-0-----x-4-----x-4-----x-5-----x-5-----x-5---x-5-----x-|
A|-----x-----x-------x-------x-------x-------x-------x-----x-------x-|
E|-----x-----x-------x-------x-------x-------x-------x-----x-------x-|

E|-------x-----0-x-------x-------------x-------x-----x------------x-|
B|-----3-x-----3-x-----2-x---2------3--x-----3-x-3---x-----3----3-x-|
G|---2-2-x---2---x---2-2-x-----2----4--x---4-4-x-3---x---3-3----2-x-|
D|-0-----x-0-----x-4-----x-4-----4--5--x-5-----x-5---x-5----5---0-x-|
A|-------x-------x-------x-------------x-------x-----x------------x-|
E|-------x-------x-------x-------------x-------x-----x------------x-|

                             strum
E|-----0-x-----------0--------0---------x-------x----x-|
B|-----3-x-0-----3-----3------2-----3-3-x-----3-x-3--x-|
G|---2---x-0---2---2-----2----2-----2-2-x---4-4-x-2--x-|
D|-0-----x---2-------------2--2-----0---x-0-----x-0--x-|
A|-------x--------------------0---------x-------x----x-|
E|-------x--------------------0---------x-------x----x-|

E|-------------x-------x----x-|
B|---------3---x-----3-x-3--x-|
G|-----0-2-2---x---4-4-x-2--x-|
D|-0-4-------0-x-0-----x-0--x-|
A|-------------x-------x----x-|
E|-------------x-------x----x-|


=====================================================================
MAIN VERSE
**********

E|---------------x-------x----x-------x----x-------x-------x-------x-|
B|---------------x-----3-x-3--x-----3-x-3--x-----3-x-----3-x-----3-x-|
G|-------2-------x---4-4-x-2--x---4-4-x-2--x---4-4-x---2-2-x---2-2-x-|
D|-0-2h4---2-0-0-x-0-----x-0--x-0-----x-0--x-0-----x-0-----x-0-----x-|
A|---------------x-------x----x-------x----x-------x-------x-------x-|
E|---------------x-------x----x-------x----x-------x-------x-------x-|

E|-------------0-x---x------------x-------x----x-|
B|-0-------3-----x-3-x---2-2-3-2--x-----3-x-3--x-|
G|-0-----0-------x-0-x---2-2-2-2--x---4-4-x-2--x-|
D|-----4---------x-0-x---2--------x-0-----x-0--x-|
A|---------------x---x-0----------x-------x----x-|
E|---0-------0---x-3-x------------x-------x----x-|

We'd go walking late at night
Count the stars up in the sky
Just you and me
If you were my baby

E|---------------x-------x----x-------x----x-------x-------x-------x-|
B|---------------x-----3-x-3--x-----3-x-3--x-----3-x-----3-x-----3-x-|
G|-------2-------x---4-4-x-2--x---4-4-x-2--x---4-4-x---2-2-x---2-2-x-|
D|-0-2h4---2-0-0-x-0-----x-0--x-0-----x-0--x-0-----x-0-----x-0-----x-|
A|---------------x-------x----x-------x----x-------x-------x-------x-|
E|---------------x-------x----x-------x----x-------x-------x-------x-|

E|-------------0-x-------x------------x-------x----x-|
B|-0-------3-----x-----3-x---2-2-3-2--x-----3-x-3--x-|
G|-0-----0-------x-----0-x---2-2-2-2--x---4-4-x-2--x-|
D|-----4---------x---0---x---2--------x-0-----x-0--x-|
A|---------------x-------x-0----------x-------x----x-|
E|---0-------0---x-3-----x------------x-------x----x-|


=====================================================================
CHORUS
******

E|-----x-----x-----0-x-------x-------x-------x-------x-----x-------x-|
B|-3-3-x-3-3-x-----3-x-----2-x-----2-x-----3-x-----3-x-3---x-----3-x-|
G|-2-2-x-2-2-x---2---x---2-2-x---2-2-x---4-4-x---4-4-x-3---x---3-3-x-|
D|-0---x-0---x-0-----x-4-----x-4-----x-5-----x-5-----x-5---x-5-----x-|
A|-----x-----x-------x-------x-------x-------x-------x-----x-------x-|
E|-----x-----x-------x-------x-------x-------x-------x-----x-------x-|

E|-------x-----0-x-------x------------x-------x------x-------x------x-|
B|-----3-x-----3-x-----2-x---2------3-x-----3-x---3--x-----3-x----3-x-|
G|---2-2-x---2---x---2-2-x-----2----4-x---4-4-x---3--x---3-3-x----2-x-|
D|-0-----x-0-----x-4-----x-4-----4--5-x-5-----x-5-5--x-5-----x-0----x-|
A|-------x-------x-------x------------x-------x------x-------x------x-|
E|-------x-------x-------x------------x-------x------x-------x------x-|

                             strum
E|-----0-x-----------0--------0---------x-------x----x-|
B|-----3-x-0-----3-----3------2-----3-3-x-----3-x-3--x-|
G|---2---x-0---2---2-----2----2-----2-2-x---4-4-x-2--x-|
D|-0-----x---2-------------2--2-----0---x-0-----x-0--x-|
A|-------x--------------------0---------x-------x----x-|
E|-------x--------------------0---------x-------x----x-|


=====================================================================
BRIDGE
******

E|-5------x-------x-------x-------x-------x-------------------|
B|-3----2-x-----2-x-----2-x-----2-x-----3-x---------2-2-2-3-2-|
G|------2-x-----2-x-----2-x-----2-x-----0-x-----0---2-2-2-2-2-|
D|--------x---0---x---0---x---0---x---0---x---0-----2---------|
A|--------x-------x-------x-------x-------x-------------------|
E|------2-x-2-----x-2-----x-2-----x-3-----x-3-----------------|


                                                                strum
E|-------------------------2----------------------------0---------0---|
B|-------3-------------2-----2---------0-3--------3-------3---3---2---|
G|-----2-----------------2-----------0--------------2-------2-----2---|
D|---4---------------4-------------2------------------2-----------2---|
A|-5---------------4----------------------------0-----------------0---|
E|----------------------------------------------------------------0---|

Just to hold  you  endlessly    Is all I'd ever need

=====================================================================
CHORUS
******

E|-----x-----0-x-------x-------x------x------x-------x-------x-|
B|-3-3-x-----3-x-----2-x-----2-x---3--x----3-x-----3-x-----3-x-|
G|-2-2-x---2---x---2-2-x---2-2-x---4--x----4-x---3-3-x---3-3-x-|
D|-0---x-0-----x-4-----x-4-----x-5-5--x-5----x-5-----x-5-----x-|
A|-----x-------x-------x-------x------x------x-------x-------x-|
E|-----x-------x-------x-------x------x------x-------x-------x-|

E|-------x-----0-x-------x-------x-------x-------x--------------x-|
B|-----3-x-----3-x-----2-x-----2-x-----3-x-----3-x-----3----3-3-x-|
G|---2-2-x---2---x---2-2-x---2-2-x---4-4-x---4-4-x---3------2-2-x-|
D|-0-----x-0-----x-4-----x-4-----x-5-----x-5-----x-5--------0---x-|
A|-------x-------x-------x-------x-------x-------x--------------x-|
E|-------x-------x-------x-------x-------x-------x--------------x-|

                          strum
E|-----0-----------0-5------0---------x-------x-----x-|
B|-----3---------3-----3----2-----3-3-x-----3-x-3---x-|
G|---2---------2---------2--2-----2-2-x---4-4-x-0---x-|
D|-0---------2--------------2-----0---x-0-----x-----x-|
A|--------------------------0---------x-------x-----x-|
E|--------------------------0---------x-------x-3---x-|


=====================================================================
END
***

E|-------x-------x------x-----x------------x-------x-------x---------|
B|-----3-x-----3-x----3-x-3---x-------3----x-----3-x-----3-x-3-------|
G|-----0-x---2-2-x----2-x-0---x-------0----x---2-2-x---4-4-x-0-------|
D|---0---x-0-----x-0----x-----x----0-------x-0-----x-0-----x---------|
A|-------x-------x------x-----x------------x-------x-------x---------|
E|-3-----x-------x------x-3---x-3----------x-------x-------x-3-------|
     Oh,                       If you were my baby

If you were my baby

E|---------------|
B|-----------3---|
G|---2-----2-----|
D|-0---2h4-------|
A|---------------|
E|---------------|
Tap to rate this tab
# A B C D E F G H I J K L M N O P Q R S T U V W X Y Z