Song name
# A B C D E F G H I J K L M N O P Q R S T U V W X Y Z

Rick Price - River Of Love chords

Highlighted       Show chord diagrams
-----------------------------------------------------------------------------
                             RIVER OF LOVE - Rick Price
-----------------------------------------------------------------------------
Tabbed by: Rogan
E-mail: eagleeye_79@hotmail.com

Tuning: Standard


I couldn't find chords for this song anywhere so I just threw this together.
Hopefully if anyone knows better they can post the amendments.  Cheers for reading, and 
I hope you enjoy.

CHORDS:
I think Rick uses these base chord formations (and does a lot of swanky stuff around 
them).  You can drop the low E to D and barre straight across the bottom three strings if 
you like.

    E5    D5     C    B7    A5     G5
e|---x-----x-----0-----2-----x------x---------|
B|---5-----3-----1-----0---- 10-----8---------|
G|---4-----2-----0-----2-----9------7---------|
D|---2-----0-----2-----1-----7------5---------|
A|---2-----0-----3-----2-----7------5---------|
E|---x-----x-----x-----x-----x------x---------|

I personally find the following formations a bit easier (or nicer) for accompaniment 
purposes (C and B7 remain unchanged):

    Em   Dsus2    A5     G5
e|---0-----0-------5-----3---------|
B|---0-----3-------5-----3---------|
G|---0-----2-------x-----x---------|
D|---2-----0-------7-----5---------|
A|---2-----0-------7-----5---------|
E|---0-----x-------x-----x---------|

In the chorus you can slide the C up to Dadd11 if you like, that works just fine.  I 
just prefer the Dsus.

-----------------------------------------------------------------------------

[Verse 1]:

E5                     D5                  E5
When I'm in trouble;      When I'm sinking down
E5                          D5                              E5
Caught up in this struggle;  Stuck out on the wrong side of town
E5                                D5                    E5
Lord I know You won't forsake me;     You help me rise above
E5               C            B7                  E5
Let Your Spirit take me down;   To the river of love


[Bridge]:
A5   G5  E5
Wash my soul in Your water
A5        E5
Turn me around
     A5     G5     E5
And I'll surrender all like I oughta
C          B7
When I go down


        [Chorus]
                        C   D5
        To the river of lo-ove
                 C   D5
        River of lo-ove
                C           B7
        Take me down, down down
                         E5
        To the river of love


[Verse 2]:
E5                           D5               E5
Dip my hands in Your water;     So cool and clear
E5                           D5                  E5
Pouring down from the altar;    There's healing here
E5                                D5                    E5
Lord I know You won't forsake me;     You help me rise above
E5               C            B7                  E5
Let Your Spirit take me down;   To the river of love


[Bridge]


[Chorus]


[Bridge]


[Chorus]
Tap to rate this tab
# A B C D E F G H I J K L M N O P Q R S T U V W X Y Z