Song name
# A B C D E F G H I J K L M N O P Q R S T U V W X Y Z

Rick Price - Heaven Knows Acoustic tab

                 HEAVEN KNOWS by Rick Price


 Heaven Knows
 By: Rick Price
 Acoustic version of 6stringer sa YouTube (http://www.youtube.com/watch?v=x9q5IPbKn6Q)
 Transcribed by: trampas gra2ox@yahoo.com

 ††††††††††††††††††††††††††††††††††††††††††††††††††††††††††††††††††††††††††††††††††††††
 ††                                                                                  ††
 †† I spend 2 Hours just to transcribe this tab by watching 6stringer's video        ††
 †† on slow motion and using my old rusty guitar so I tried my best to made this tab ††
 †† more closely to the original and detailed as possible as I can                   ††
 †† so here it is hope you like it and enjoy!:)                                      ††
 ††                                                                                  ††
 †† kayo na bahala sa timing :}                                                      ††
 ††                                                                                  ††
 ††††††††††††††††††††††††††††††††††††††††††††††††††††††††††††††††††††††††††††††††††††††




   / = slide up
   \ = slide down
   h = hammer-on
   p = pull-off
   ~ = vibrato
   + = harmonic
   x = Mute note    
      



 Intro 
 e|--------3---------------0-----1--0------|
 B|--3--------3---------3-----1--------1---|
 G|-----5------------5---------------------|
 D|--5------------5--------3---------------|
 A|--3------------3------------------------|
 E|----------------------------------------|


 e|--------3---------------3---|
 B|--3--------3---------3--6---|
 G|-----5------------5-----5---|
 D|--5------------5--------3---|
 A|--3---------------------5---|
 E|------------------------3---|


 Verse I
 e|--------------------------0------------------------------0------|
 B|--------------0-----------3----------1-----1--1h3--1--------1---|
 G|--5--5--4-----------0-----0-----0-0-----2-------------2---------|
 D|-----------7-----------2-------------3--------------------------|
 A|-----------------3----------------------------------------------|
 E|----------------------------------------------------------------|
    She’s always on my mind         From the time I wake up

 e|--1-----0-----------------0------0-----5---------|
 B|-----------3-----------3------3--------------1---|
 G|-------------------------------------------------|
 D|-----0--------------0----------------------------|
 A|-----------------2-------------------------------|
 E|--3-----------1-----------0---------0-----4------|
   Till I close my eyes  She is everywhere I go

 e|---------------------------|
 B|-----------1--0--1---------|
 G|--------2------------2-----|
 D|-----2---------------------|
 A|--0------------------------|
 E|--------------3------------|
            She’s all I know

 e|------------------1---------1---|
 B|---------------1-----1------1---|
 G|------------2-----------2---2---|
 D|---------3------------------3---|
 A|------3---------------------0---|
 E|---1------------------------3---|


 Verse II
 e|--------------------------0---|
 B|--1--1---0--------0-------3---| 
 G|-------------2------0-----0---|
 D|-----------------------2------|
 A|----------------3-------------|
 E|------------------------------|
   And though she’s so far away

 e|-----------------------------|
 B|--1-----1-1-1h2-1--------1---|
 G|-----2----------------2------|
 D|--3----------------3---------|
 A|-----------------------------|
 E|-----------------------------|
   It just keep getting stronger 
 
 e|--0--1--0----------------0--0---0-----5---------|
 B|-----------3----------3---------------------1---|
 G|------------------------------------------------|
 D|-------------------3----------------------------|
 A|----------------2-------------------------------|
 E|--3----------1-----------0---------0-----4------| 
    Everyday             And even though she’s gone 

 e|----------------------------------------1---|
 B|--------0h1-0-----0-0h1--------------1------|
 G|-------------------------2------------------|
 D|-----2----------------------------3---------|
 A|--0----------------------------3------------|
 E|---------------3------------1---------------|
    I’m still    holdin on

 Pre Chorus
 e|---------------------------------------------------0---------|
 B|-----0--1--1--0--1--1--------0--1--1--0--1--1h3-1--------2---|
 G|--2-----------------------2---------------------------3------|
 D|-----------------------2-------------------------------------|
 A|-----------0--------0----------------------------------------|
 E|-----------------------------------3--------3----------------|
    So tell me where do I start Coz it breakin my heart 

 e|--0--1--0--------------3------------3--------0------|
 B|-----------3-----1---------------4-----------3------|
 G|--------------2-----2---------5--------------3------|
 D|--3------------------------6--------------3---------|
 A|---------------------------------------1--------0---|
 E|----------------------------------------------------|
   Don’t want to let her go...

 Chorus
 e|--3--3--3--3-----1-0h1p0----------0--------------------|
 B|-------------------------3-----------3-----1-0h1p0-----|
 G|-------------------------------2-------------------0---|
 D|-------------------------------------------------------|
 A|--3----------------------------------------------------|
 E|--------------0-------------1-----------3--------------|
   Maybe my love   will come back    someday

 e|--0-----3/8-8---7\3-3---------------------------|
 B|-----1----------0---------------1--1--0---------|
 G|-----------------------------2-----------2p0----|
 D|--------------------------3---------------------|
 A|--3---------------------------------------------|
 E|--------------0--------1-----------3------------|
    Only   heaven     knows...

 e|--3--3--3--3-----1-0h1p0----------0---------------------|
 B|-----1--1--1-------------3-----------3-----1--0h1p0-----|
 G|-------------------------------2--------------------0---|
 D|--------------------------------------------------------|
 A|--3-----------------------------------------------------|
 E|--------------0-------------1-----------3---------------|
   Maybe our hearts will find      their way

 e|--8-----7-----------------3--------------------------|
 B|-----------10-----8-------------------1--1--0--------|
 G|-----0---------------7\0-----------2-----------2p0---|
 D|--------------------------------3--------------------|
 A|-----------------------------------------------------|
 E|--8------------0-------------1-----------3-----------|
    Only heaven            knows...

 e|----0----------------3--------0---------3------------------|
 B|-------1--1--1--3p0-----------------3---3-----------3------|
 G|-------------2----------------------3---5--------------5---|
 D|---------------------------3--------3---3--5--5--5---------|
 A|----0--------0----------1--------1------5------------------|
 E|----------------------------------------3------------------|
  And all I can do is hope   and  pray       Coz heaven knows

 Intro
 e|--------3---------------0-----1--0---------|
 B|--3--------3---------3-----1--------1------|
 G|-----5------------5--------------------0---|
 D|--5------------5--------3-----------3------|
 A|--3------------3---------------------------|
 E|-------------------------------------------|


 e|-----------3--------------3---|
 B|-----3--------3--------3--6---|
 G|--------5-----------5-----5---|
 D|-----5-----------5--------3---|
 A|--0--3--------------------5---|
 E|--------------------------3---|


 verse III
 e|--------------------------0-----0----------------------0-----------|
 B|--------------0-----------3--------0--1-----1-1-1h3-1-----1--------|
 G|--5--5--4--------------0-----0-----------2-------------------2p0---|
 D|------------7-------2-----------------3---------2------------------|
 A|-----------------3-------------------------------------------------|
 E|-------------------------------------------------------------------|
   My friends keep telling  me        If you really love her you’ve gotta

 e|-----1--0-----------------0-0-----0-----5---------|
 B|-----------3-----------3-------3--------------1---|
 G|--------------------------------------------------|
 D|--------------------0-----------------------------|
 A|-----------------2--------------------------------|
 E|--3-----------1-----------0----------0-----4------|
    Set her free         And if she return in   kind  

 e|----------------------------------------1---|
 B|--------0h1-0-----0--1---------------1------|
 G|-------------------------2------------------|
 D|-----2----------------------------3---------|
 A|--0----------------------------3------------|
 E|---------------3------------1---------------|
           I  know     she’s mine

 Pre Chorus
 e|----------------------------------0-------------------------|
 B|-----0--1--1--0--1--1-------0--1------1---0--1h3-1----------|
 G|--2-----------------2-------------------------------0h2-0---|
 D|--------------------2----2----------------------------------|
 A|-----------0--------0---------------------------------------|
 E|----------------------------------3----------3--------------|
   So tell me where do I start Coz it breakin my heart

 e|--0--1--0--------------3-----------3--------0------|
 B|-----------3-----1--------------4-----------3------|
 G|--------------2-----2--------5--------------3------|
 D|--3-----------------------6--------------3---------|
 A|--------------------------------------1-----1--0---|
 E|---------------------------------------------------|
    Don’t want to let her go...

 Chorus
 e|--3--3--3--3-----1-0h1p0----------0--------------------|
 B|-------------------------3-----------3-----1-0h1p0-----|
 G|-------------------------------2-------------------0---|
 D|-------------------------------------------------------|
 A|--3----------------------------------------------------|
 E|--------------0-------------1-----------3--------------|
    Maybe my love  will come back   someday

 e|--0-----3/8-8-----7\3-3---------------------------|
 B|-----1------------0---------------1--1--0-----0---|
 G|-------------------------------2-----------2------|
 D|----------------------------3---------------------|
 A|--3-----------------------------------------------|
 E|---------------0---------1-----------3------------|
    Only   heaven     knows...

 e|--3--3--3--3-----1-0h1p0----------0---------------------|
 B|-----1--1--1-------------3-----------3-----1--0h1p0-----|
 G|-------------------------------2--------------------0---|
 D|--------------------------------------------------------|
 A|--3-----------------------------------------------------|
 E|--------------0-------------1-----------3---------------|
    Maybe our hearts will find     their way

 e|--8-----7-----------------3---------------------------|
 B|-----------10-----8-------------------1--1--0-----0---|
 G|-----0---------------7\0-----------2-----------2------|
 D|--------------------------------3---------------------|
 A|------------------------------------------------------|
 E|--8------------0-------------1-----------3------------|
    Only  heaven  knows

 e|--0----------------3--------0------------------1------------------|
 B|-----1--1--1--3p0-----------------3------------------------3--1---|
 G|-----------2----------------------3---------2-----0--0--0---------|
 D|-------------------------3--------3---------3---------------------|
 A|--0--------0----------1--------1------0---------------------------|
 E|-----------------------------------------3------------------------|
    All I can do is  hope     and   pray...         Coz heaven knows

 Bridge            
 e|-----------1----------------------------------|
 B|--------1--------0--1--3--1--0--1h3-1-----1---|
 G|-----0--------0------------------------0------|
 D|--0-------------------------------------------|
 A|----------------------------------------------|
 E|-----------------------0----------------------|
                Why  I  live in  despair

 e|--0--1--0-----------------3--1-------|-12+-----------|
 B|-----------3--3--1--0--1--------0--0-|---------12+---|
 G|-----------------2-------------------|-----12+-------|
 D|--3--------------3-------------------|---------------|
 A|-------------------------------------|---------------|
 E|--------------------------0----------|---------------|
    Coz wide awake or dreaming I know she’s never there
                            
 e|------------------0--0-----8--7--0-|-12+--------------|
 B|--0--1--1--1--1h3-------1/---------|-----12+----------|
 G|--------------2--------------------|---------12+------|
 D|--0-----------0--------------------|------------------|
 A|-----------------------------------|-------------7+---|
 E|---------------------------0-------|-0----------------|
    But all the time I act so brave im shaking inside

 e|--0---1---0-----------3-|
 B|-------------3-----1----|
 G|----------------2-------|
 D|--3---------------------|
 A|------------------------|
 E|------------------------|
    Why does it hurt me so...
                              
      hold!                          hold!       
 e|----------3-|-16+-------------|------------|-13+---------------|
 B|-------4----|-----17+---------|----------3-|-----15+-----------|
 G|----5-------|---------18+-----|-------3----|---------15+-------| 
 D|-6----------|-------------19+-|----3-------|-------------15+---|
 A|------------|-----------------|-1----------|-------------------|
 E|------------|-----------------|------------|-------------------|


 Chorus
 e|--3--3--3--3-----1-0h1p0----------0---------------------|
 B|-----1--1--1-------------3-----------3-----1--0h1p0-----|
 G|-------------------------------2--------------------0---|
 D|--------------------------------------------------------|
 A|--3-----------------------------------------------------|
 E|--------------0-------------1-----------3---------------|
    Maybe my love  will come back  someday
 
 e|--0-----3/8-8-----7\3-3---------------------------|
 B|-----1------------0---------------1--1--0-----0---|
 G|-------------------------------2-----------2------|
 D|----------------------------3---------------------|
 A|--3-----------------------------------------------|
 E|---------------0---------1-----------3------------|
    Only     heaven    knows
 
 e|--3--3--3--3-----1-0h1p0----------0---------------------|
 B|-----1--1--1-------------3-----------3-----1--0h1p0-----|
 G|-------------------------------2--------------------0---|
 D|--------------------------------------------------------|
 A|--3-----------------------------------------------------|
 E|--------------0-------------1-----------3---------------|
     Maybe our hearts will find     their way
 
 e|--8-----7-----------------3---------------------------|
 B|-----------10-----8-------------------1--1--0-----0---|
 G|-----0---------------7\0-----------2-----------2------|
 D|--------------------------------3---------------------|
 A|------------------------------------------------------|
 E|--8------------0-------------1-----------3------------|
    Only     heaven        knows
 
 e|----0----------------3--------0-----------------------------------|
 B|-------1--1--1--3p0-----------------3-------------3--------3------|
 G|----------2--2-------------------3----------------------------5---|
 D|---------------------------3-------------------3-----5--5---------|
 A|----0--------0----------1-------------------5---------------------|
 E|-----------------------------------------3------------------------|
  And all I can do is  hope...  and pray            Coz heaven knows...  
 
 Outro
 e|--------3---------------0-----1--0-------------------3------|
 B|--3--------3---------3-----1--------1----------3--------3---|
 G|-----5------------5--------------------0----------5---------|
 D|--5------------5--------3----------------------5------------|
 A|--3------------3----------------------------0--3------------|
 E|------------------------------------------------------------|
                                        Heaven knows...
 
 e|-----------3--3--------------------0~---|
 B|--------3--3------------3----------1~---|
 G|-----5-----5---------------5~------0~---|
 D|--5--------3------5--5-------------2~---|
 A|-----------5-----------------------3~---|
 E|-----------3-----------------------3~---|
                    Heaven knows...

          
                            ~ END ~
 
 ################################################################################

 For comments and suggestions
 Please email me at gra2ox@yahoo.com
 
 Special thanks to:
 
 #6stringer for his wonderful and unique skills
 #Filisa my aunt for buying me some snacks
 #Har2x for waiting me to finish this tab
        Cause he wants to play DOTA!
 #sa manga hinula ug DOTA SA BACONG!!!
 #and to my old guitar!
 

 God bless!:)

 ********************************************************************************




Tap to rate this tab
 
# A B C D E F G H I J K L M N O P Q R S T U V W X Y Z