Rick Ross - You Dont Work You Dont Eat tab

e|--------------------------------------------|
B|--------------------------------------------|
G|-------------20-------------20--------------|
D|--14/15--18------14/15--18------------------|
A|--------------------------------------------|
E|--------------------------------------------|

e|--------------------------------------------|
B|--------------------------------------------|
G|-------------20-------------20--------------|
D|--16/17--18------16/17--18------------------|
A|--------------------------------------------|
E|--------------------------------------------|


^Pretty Basic Version. Remember to slide Up.^


e|--------------------------------------------|
B|-------------16-------------16--------------|
G|--------------------------------------------|
D|--14/15--18------14/15--18------------------|
A|--------------------------------------------|
E|--------------------------------------------|

e|--------------------------------------------|
B|--------------------------------------------|
G|-------------20-------------20--------------|
D|--16/17--18------16/17--18------------------|
A|--------------------------------------------|
E|--------------------------------------------|

^Alternate version. It sounds to me that the 4th and 8th note change pitch slightly in the song.^


| /  slide up
| \  slide down
| h  hammer-on
| p  pull-off
| ~  vibrato
| +  harmonic
| x  Mute note
Tap to rate this tab
 
# A B C D E F G H I J K L M N O P Q R S T U V W X Y Z