Song name
# A B C D E F G H I J K L M N O P Q R S T U V W X Y Z

Rick Springfield - Whats Victorias Secret tab

                    What's Victoria's Secret - Rick Springfield
Tuning: standard

Intro/verse 1
The intro is repeated x8 but the first 4 times it is PM and the last 4 times it is not PM
e|-------------------------------------------------------------------------|
B|-------------------------------------------------------------------------|
G|--7--7-7---6-6---4--4-4--------------------------------------------------|
D|--7--7-7---7-7---4--4-4---5-5--------------------------------------------|
A|--5--5-5---4-4---2--2-2---5-5--------------------------------------------|
E|--------------------------3-3--------------------------------------------|

Pre chorus  gave me trouble but i tink i got it
e|-------------------------------------------------------------------------|
B|-------------------------------------------------------------------------|
G|-------------------------------------------------------------------------|
D|------5-----7/-------5------5-7-5-7--------------------------------------|
A|------5-----7/-------5------5-7-5-7--------------------------------------|
E|-0-1--3-----5/---0-1-3------3-5-3-5--------------------------------------|

Chorus x6
e|-------------------------------------------------------------------------|
B|-------------------------------------------------------------------------|
G|---------------------------7-7-------------------------------------------|
D|-5-5-5-5-7-7-7-7-9-9-9-9---7-7-------------------------------------------|
A|-5-5-5-5-7-7-7-7-9-9-9-9---5-5-------------------------------------------|
E|-3-3-3-3-5-5-5-5-7-7-7-7-------------------------------------------------|

Post chorus
e|-----------------6-6-6-6-7-7-7-7-----------------------------------------|
B|-----------------7-7-7-7-7-7-7-7---------2-2-2-2-------------------------|
G|-----------------6-6-6-6-7-7-7-7---------2-2-2-2--7/---------------------|
D|-5-5-5-5-7-7-7-7-8-8-8-8-9-9-9-9-2-2-2-2-2-2-2-2--7/---------------------|
A|-5-5-5-5-7-7-7-7-9-9-9-9-9-9-9-9-2-2-2-2-0-0-0-0--5/---------------------|
E|-3-3-3-3-5-5-5-5-6-6-6-6-7-7-7-7-0-0-0-0---------------------------------|

verse 2
same as into/verse 1 it's repeated x8 but the first 4 times it is PM and the last 4 
it is not PM
now there are two guitars in this song and in this verse it sounds like one of the guys 
playing the root 6 A but both parts are in there the root 6 A just stands out more
e|--------------------------------|  |------------------------------------|
B|--------------------------------|  |------------------------------------|
G|--7--7-7---6-6---4--4-4---------|  |----root-6-A------------------------|
D|--7--7-7---7-7---4--4-4---5-5---|  |-------5----------------------------|
A|--5--5-5---4-4---2--2-2---5-5---|  |-------5----------------------------|
E|--------------------------3-3---|  |-------3----------------------------|

Pre chorus again
e|-------------------------------------------------------------------------|
B|-------------------------------------------------------------------------|
G|-------------------------------------------------------------------------|
D|------5-----7/-------5------5-7-5-7--------------------------------------|
A|------5-----7/-------5------5-7-5-7--------------------------------------|
E|-0-1--3-----5/---0-1-3------3-5-3-5--------------------------------------|

Chorus x6
e|-------------------------------------------------------------------------|
B|-------------------------------------------------------------------------|
G|---------------------------7-7-------------------------------------------|
D|-5-5-5-5-7-7-7-7-9-9-9-9---7-7-------------------------------------------|
A|-5-5-5-5-7-7-7-7-9-9-9-9---5-5-------------------------------------------|
E|-3-3-3-3-5-5-5-5-7-7-7-7-------------------------------------------------|

Post chorus
e|-----------------6-6-6-6-7-7-7-7-----------------------------------------|
B|-----------------7-7-7-7-7-7-7-7---------2-2-2-2-------------------------|
G|-----------------6-6-6-6-7-7-7-7---------2-2-2-2-------------------------|
D|-5-5-5-5-7-7-7-7-8-8-8-8-9-9-9-9-2-2-2-2-2-2-2-2-------------------------|
A|-5-5-5-5-7-7-7-7-9-9-9-9-9-9-9-9-2-2-2-2-0-0-0-0-------------------------|
E|-3-3-3-3-5-5-5-5-6-6-6-6-7-7-7-7-0-0-0-0---------------------------------|

Interlude
right after post chorus the song goes into this imediately after the A chord
e|-------------------------------------------------------------------------|
B|-------2-----------------------------------------------------------------|
G|-------2-----------5-----------------------------------------------------|
D|-3-----2-x14-9-----5-x14-------------------------------------------------|
A|-3-x14-0-----9-x14-3-----------------------------------------------------|
E|-1-----------7-----------------------------------------------------------|

Verse thing
 not PM
e|-------------------------------------------------------------------------|
B|-------------------------------------------------------------------------|
G|--7--7-7---6-6---4--4-4--------------------------------------------------|
D|--7--7-7---7-7---4--4-4---5-5--------------------------------------------|
A|--5--5-5---4-4---2--2-2---5-5--------------------------------------------|
E|--------------------------3-3--------------------------------------------|

still verse thing
this goes after above
e|-------------------------------------------------------------------------|
B|-------------------------------------------------------------------------|
G|--7--7-7---6-6-----------------------------------------------------------|
D|--7--7-7---7-7--5-7-5-7--------------------------------------------------|
A|--5--5-5---4-4--5-7-5-7--------------------------------------------------|
E|----------------3-5-3-5--------------------------------------------------|

Chorus x6
e|-------------------------------------------------------------------------|
B|-------------------------------------------------------------------------|
G|---------------------------7-7-------------------------------------------|
D|-5-5-5-5-7-7-7-7-9-9-9-9---7-7-------------------------------------------|
A|-5-5-5-5-7-7-7-7-9-9-9-9---5-5-------------------------------------------|
E|-3-3-3-3-5-5-5-5-7-7-7-7-------------------------------------------------|

Post chorus x3
e|-----------------6-6-6-6-7-7-7-7-----------------------------------------|
B|-----------------7-7-7-7-7-7-7-7---------2-2-2-2-------------------------|
G|-----------------6-6-6-6-7-7-7-7---------2-2-2-2-------------------------|
D|-5-5-5-5-7-7-7-7-8-8-8-8-9-9-9-9-2-2-2-2-2-2-2-2-------------------------|
A|-5-5-5-5-7-7-7-7-9-9-9-9-9-9-9-9-2-2-2-2-0-0-0-0-------------------------|
E|-3-3-3-3-5-5-5-5-6-6-6-6-7-7-7-7-0-0-0-0---------------------------------|

on last time after A
e|-------------------------------------------------------------------------|
B|-------------------------------------------------------------------------|
G|-7-7/--------------------------------------------------------------------|
D|-7-7/--------------------------------------------------------------------|
A|-5-5/--------------------------------------------------------------------|
E|-------------------------------------------------------------------------|
Tap to rate this tab
# A B C D E F G H I J K L M N O P Q R S T U V W X Y Z