Song name
# A B C D E F G H I J K L M N O P Q R S T U V W X Y Z

Rick Springfield - I Get Excited tab

I just had to post the correct intro to this song...Enjoy!
Intro
4/4
About 120 bpm
  Gtr I
  Standard Tuning
|---------|-----------------|-----------------|
|---------|-----------------|-----------------|
|---------|-----------------|-----------------|
|---------|---------7-7---7-|-----------------|
|---9-7-5-|-5-5---5-5-5---5-|-7-7---9---9-7-5-|
|---7-5-3-|-3-3---3---------|-5-5---7---7-5-3-|


  
|-----------------|-----------------|
|-----------------|-----------------|
|-----------------|-----------------|
|---------7-7---7-|-----------------|
|-5-5---5-5-5---5-|-7-7---9---9-7-5-|
|-3-3---3---------|-5-5---7---7-5-3-|


Tap to rate this tab
# A B C D E F G H I J K L M N O P Q R S T U V W X Y Z