Song name
# A B C D E F G H I J K L M N O P Q R S T U V W X Y Z

Rick Springfield - Jessies Girl tab

----------------------------------------------------------------------------
	         Jessie's Girl (solo) - Rick Springfield
---------------------------------------------------------------------------

Tabbed by: P@u!
Email: check_and_mate@hotmail.com

Hey everyone! This is my first tab, 
so please tell me what you think :) 
It should be pretty accurate, 
just the last 4 notes i cant really make out 
(could be chords). 
Hope it helps! Enjoy!


Tuning: Standard EADGBe

e|------------------------12---------10-9----10------------------------------|
B|---------------------------12--10-------10----10---------------------------|
G|---------------------------------------------------------------------------|
D|12-12-12-12-12-12-12-12----------------------------------------------------|
A|---------------------------------------------------------------------------|
E|---------------------------------------------------------------------------|

e|14--17--14\10--10-----------10---------------------------------------------|
B|-----------------12p-10-10-----12-12p-10-----------------------------------|
G|---------------------------------------------------------------------------|
D|---------------------------------------------------------------------------|
A|---------------------------------------------------------------------------|
E|---------------------------------------------------------------------------|

e|14-14--12-10-9--------15--14-12p-10h-12p-10--------------------------------|
B|---------------10----------------------------------------------------------|
G|---------------------------------------------------------------------------|
D|---------------------------------------------------------------------------|
A|---------------------------------------------------------------------------|
E|---------------------------------------------------------------------------|

e|------------9--------------------------------------------------------------|
B|-----10--12---10------------------13\--------------------------------------|
G|11-------------------10--9--10---------------------------------------------|
D|---------------------------------------------------------------------------|
A|---------------------------------------------------------------------------|
E|---------------------------------------------------------------------------|

************************************

| /   slide up
| \   slide down
| h   hammer-on
| p   pull-off
| ~   vibrato
| +   harmonic
| x   Mute note
| b   Bend
| pb  Pre-bend
| br  Bend release
| pbr Pre-bend release
| brb Bend release bend

************************************
Tap to rate this tab
# A B C D E F G H I J K L M N O P Q R S T U V W X Y Z