Song name
# A B C D E F G H I J K L M N O P Q R S T U V W X Y Z

Rick Springfield - Jessies Girl tab

'Jessie's Girl' Solo
By Rick Springfield

e|----------------12----------------------------------17----------------|
B|-------------------12----15-12----15---------17b(19)---(19)r17--------|
G|--7-7-7-7~~~----------14-------14----14-------------------------------|
D|----------------------------------------------------------------------|
A|----------------------------------------------------------------------|
E|----------------------------------------------------------------------|

e|--10-----------10------------12b(14)-14-12-10-10/--15-14-12----12-----|
B|-----12-11-10-----12-11-10----------------------------------15----15~-|
G|----------------------------------------------------------------------|
D|----------------------------------------------------------------------|
A|----------------------------------------------------------------------|
E|----------------------------------------------------------------------|

e|-------------9--------------------------------------------------------|
B|-----10--12-----10~~-----12--10--12--14-15~~~-------------------------|
G|-11----------------------12--11--12--14-14~~~-------------------------|
D|----------------------------------------------------------------------|
A|----------------------------------------------------------------------|
E|----------------------------------------------------------------------|
Tap to rate this tab
 
# A B C D E F G H I J K L M N O P Q R S T U V W X Y Z