Song name
# A B C D E F G H I J K L M N O P Q R S T U V W X Y Z

Rick Springfield - Jessies Girl tab

-----------------------------------------------------------------------------
			     JESSIE'S GIRL - Rick Springfield
-----------------------------------------------------------------------------
Tabbed by: MrBlitz                                       

Tuning: Standard                     

The numbers most likely are not spaced out right, but if you follow the song, you 
can pick it up pretty easy.

e|---------------------------|
B|---------------------------|
G|---------------------------|  x6       
D|---------------------------|
A|-5-5-------------------5-5-|
E|-----5-5-7-7---3-3-5-5-----|
pm{.........................}                                                                 

e|---------------------------|
B|---------------------------|
G|-7-7-------------------7-7-| x3         
D|-7-7-7-7-9-9---5-5-7-7-7-7-|
A|-5-5-7-7-9-9---5-5-7-7-5-5-|
E|-----5-5-7-7---3-3-5-5-----|

e|-----------------|
B|-----------------|
G|-----------------|
D|-7-7-7-7-7-7-7-7-|
A|-7-7-7-7-7-7-7-7-|
E|-5-5-5-5-5-5-5-5-|
pm{...............}

e|-----------------------|
B|-----------------------|
G|---7-7-7---------------| x2      
D|-7-7-7-7---7-9-9-7-9-7-|
A|-7-5-5-5---7-9-9-7-9-7-|
E|-5-5-5-5---5-7-7-5-7-5-|


e|---------------------|
B|---------------------|
G|-----7---------------|
D|-5-7-7---9-9-9-9/7-7-|
A|-5-7-5---9-9-9-9/7-7-|
E|-3-5-5---7-7-7-7/5-5-|


e|---------------------------|
B|---------------------------|
G|---------------------------|
D|---------------------------| x4    
A|-5-5-------------------5-5-|
E|-----5-5-7-7---3-3-5-5-----|
pm{.........................}


e|---------------------------|
B|---------------------------|
G|-7-7-------------------7-7-| x3      
D|-7-7-7-7-9-9---5-5-7-7-7-7-|
A|-5-5-7-7-9-9---5-5-7-7-5-5-|
E|-----5-5-7-7---3-3-5-5-----|


e|-----------------|
B|-----------------|
G|-----------------|
D|-7-7-7-7-7-7-7-7-|
A|-7-7-7-7-7-7-7-7-|
E|-5-5-5-5-5-5-5-5-|
pm{...............}


e|-----------------------|
B|-----------------------|
G|---7-7-7---------------| x2    
D|-7-7-7-7---7-9-9-7-9-7-|
A|-7-5-5-5---7-9-9-7-9-7-|
E|-5-5-5-5---5-7-7-5-7-5-|


e|---------------------|
B|---------------------|
G|-----7---------------|
D|-5-7-7---9-9-9-9/7-7-|
A|-5-7-5---9-9-9-9/7-7-|
E|-3-5-5---7-7-7-7/5-5-|


e|-----------------------|
B|-----------------------|
G|---7-7-7---------------| x2    
D|-7-7-7-7---7-9-9-7-9-7-|
A|-7-5-5-5---7-9-9-7-9-7-|
E|-5-5-5-5---5-7-7-5-7-5-|


e|-----------------------------------------|
B|-----------------------------------------|
G|-----7-----------7-------7---------------|
D|-5-7-7---5-5-5-7-7---5-7-7---9-9-9-9/7-7-|
A|-5-7-5---5-5-5-7-5---5-7-5---9-9-9-9/7-7-|
E|-3-5-5---3-3-3-5-5---3-5-5---7-7-7-7/5-5-|


e|-7---10---9--|
B|-8---10---10-|
G|-7---11---9--| x6        
D|-------------|
A|-------------|
E|-------------|

e|-----------------------|
B|-----------------------|
G|---4-4-4---------------| x4     
D|-4-4-4-4---4-6-6-4-6-4-|
A|-4-2-2-2---4-6-6-4-6-4-|
E|-2-2-2-2---2-4-4-2-4-2-|

e|---------------------|
B|---------------------|
G|-----7---------------|
D|-5-7-7---9-9-9-9/7-7-|
A|-5-7-5---9-9-9-9/7-7-|
E|-3-5-5---7-7-7-7/5-5-|


e|---------------------12-------------------|
B|------------------------12---15p14--15----|
G|--------------------------14------14--14/-|
D|-12-12-12-12-12-12------------------------|
A|------------------------------------------|
E|------------------------------------------|


e|-------17--------10---------10--------|
B|-17b19hold19r17------12r11r10---12r10-|
G|--------------------------------------|
D|--------------------------------------|
A|--------------------------------------|
E|--------------------------------------|


e|-/14-14-12-10------/15-14--------------|
B|--------------------------15p14h15-14/-|
G|--------------9/7----------------------|
D|---------------------------------------|
A|---------------------------------------|
E|---------------------------------------|


e|-----------9----------9--10-10-10-|
B|-----10-12---10--8/10-10-10-10-10-|
G|-/11-------------7/9--9--9--9--9--|
D|----------------------------------|
A|----------------------------------|
E|----------------------------------|


e|-----------------|
B|-----------------|
G|-----------------|
D|-7-7-7-7-7-7-7-7-|
A|-7-7-7-7-7-7-7-7-|
E|-5-5-5-5-5-5-5-5-|
pm{...............}


e|-----------------------|
B|-----------------------|
G|---7-7-7---------------| x3    
D|-7-7-7-7---7-9-9-7-9-7-|
A|-7-5-5-5---7-9-9-7-9-7-|
E|-5-5-5-5---5-7-7-5-7-5-|

e|---------------------|
B|---------------------|
G|-----7---------------|
D|-5-7-7---9-9-9-9/7-7-|
A|-5-7-5---9-9-9-9/7-7-|
E|-3-5-5---7-7-7-7/5-5-|

e|-----------------------|
B|-----------------------|
G|---7-7-7---------------| x3    
D|-7-7-7-7---7-9-9-7-9-7-|
A|-7-5-5-5---7-9-9-7-9-7-|
E|-5-5-5-5---5-7-7-5-7-5-|

e|-------------------|
B|-----------------3-|
G|---7-7-----7-----2-|
D|-7-7-7---7-7-7-5-0-|
A|-7-5-5---7-5-7-5-0-|
E|-5-5-5---5-5-5-3---|


credit due to hwaug2

LEGEND
/ slide
b bend to
r release to
h hammer on to
p pull off to
pm{.} palm mute for duration
Tap to rate this tab
 
# A B C D E F G H I J K L M N O P Q R S T U V W X Y Z