Song name
# A B C D E F G H I J K L M N O P Q R S T U V W X Y Z

Rick Springfield - Jessies Girl tab

Jessie's Girl - Rick Springfield
Genre: Rock

This is my first tab so please rate and leave comments.
I think it's pretty accurate but if not leave a comment
And I'll fix it.

Thanks,

Email: squishie95@hotmail.com

Verse:  Palm mute: 0.00 - 0.21
e------------------------------|
B------------------------------|
G-7-7----------------------7-7-|
D-7-7--7-7--9-9--5-5--7-7--7-7-|          x5
A-5-5--7-7--9-9--5-5--7-7--5-5-|
E------5-5--7-7--3-3--5-5------|


Not Palm Muted: 0.22 - 0.32
e------------------------------|
B------------------------------|
G-7-7----------------------7-7-|
D-7-7--7-7--9-9--5-5--7-7--7-7-|          x3
A-5-5--7-7--9-9--5-5--7-7--5-5-|
E------5-5--7-7--3-3--5-5------|


Fill: Palm Muted: 0.32 - 0.34
e------------------------------|
B------------------------------|
G------------------------------|
D-7--7--7--7--7--7--7--7-------|
A-7--7--7--7--7--7--7--7-------|
E-5--5--5--5--5--5--5--5-------|


Chorus: 0.34 - 0.44
e------------------------------|
B------------------------------|
G----7-7-7---------------------|
D-7--7-7-7--7--5-5-7-5-7-------|          x2
A-7--5-5-5--7--5-5-7-5-7-------|
E-5---------5--7-7-5-7-5-------|

e------------------------------|
B------------------------------|
G------7---------7-------------|
D-5--7-7--5--7-7-7-------------|
A-5--7-5--5--7-7-5-------------|
E-3--5----3--5-5---------------|


Verse: Palm Muted: 0.45 - 1.00
e------------------------------|
B------------------------------|
G-7-7----------------------7-7-|
D-7-7--7-7--9-9--5-5--7-7--7-7-|          x4
A-5-5--7-7--9-9--5-5--7-7--5-5-|
E------5-5--7-7--3-3--5-5------|


Not Palm Muted: 1.01 - 1.11
e------------------------------|
B------------------------------|
G-7-7----------------------7-7-|
D-7-7--7-7--9-9--5-5--7-7--7-7-|          x3
A-5-5--7-7--9-9--5-5--7-7--5-5-|
E------5-5--7-7--3-3--5-5------|


Fill: Palm Muted: 1.12 - 1.14
e------------------------------|
B------------------------------|
G------------------------------|
D-7--7--7--7--7--7--7--7-------|
A-7--7--7--7--7--7--7--7-------|
E-5--5--5--5--5--5--5--5-------|



Chorus: 1.14 - 1.39
e------------------------------|
B------------------------------|
G----7-7-7---------------------|
D-7--7-7-7--7--5-5-7-5-7-------|          x2
A-7--5-5-5--7--5-5-7-5-7-------|
E-5---------5--7-7-5-7-5-------|

e------------------------------|
B------------------------------|
G------7---------7-------------|
D-5--7-7--5--7-7-7-------------|
A-5--7-5--5--7-7-5-------------|
E-3--5----3--5-5---------------|


e------------------------------|
B------------------------------|
G----7-7-7---------------------|
D-7--7-7-7--7--5-5-7-5-7-------|          x2
A-7--5-5-5--7--5-5-7-5-7-------|
E-5---------5--7-7-5-7-5-------|

e------------------------------|
B------------------------------|
G------7---------7-------------|
D-5--7-7--5--7-7-7-------------|          x2
A-5--7-5--5--7-7-5-------------|
E-3--5----3--5-5---------------|


Fill: Palm Muted: 1.39 - 1.59 
e------------------------------|
B------------------------------|
G------------------------------|
D-5--5--5--5--5--5--5--5-------|          x6
A-5--5--5--5--5--5--5--5-------|
E-3--3--3--3--3--3--3--3-------|


Bridge: 2.00 - 2.18
e------------------------------|
B------------------------------|
G----4-4-4---------------------|
D-4--4-4-4--4--6-6-4-6-4-------|          x4
A-4--2-2-2--4--6-6-4-6-4-------|
E-2---------2--4-4-2-4-2-------|


e------------------------------|
B------------------------------|
G------7---------7-------------|
D-5--7-7--5--7-7-7-------------|
A-5--7-5--5--7-7-5-------------|
E-3--5----3--5-5---------------|

Solo: 2.19 - 2.33
e----------------12------10-9----10-----------17-------------------------------|
B-12-12-12-12-12----12-10-----10----10--17b18----18b17-15----------15----------|
G---------------------------------------------------------16-15-14----16-15-14-|
D------------------------------------------------------------------------------|
A------------------------------------------------------------------------------|
E------------------------------------------------------------------------------|

e-12b14-14-12-10-12-10--14b15-15-12-10h12-10-----------9--------------9--10-10-|
B------------------------------------------------10-12---10-10--10-12-10-10-10-|
G---------------------------------------------11----------------11-12----------|
D------------------------------------------------------------------------------|
A------------------------------------------------------------------------------|
E------------------------------------------------------------------------------|


Fill: Palm Muted: 2.33 - 2.35
e------------------------------|
B------------------------------|
G------------------------------|
D-7--7--7--7--7--7--7--7-------|
A-7--7--7--7--7--7--7--7-------|
E-5--5--5--5--5--5--5--5-------|

Chorus: 2.36 - 3.01
e------------------------------|
B------------------------------|
G----7-7-7---------------------|
D-7--7-7-7--7--5-5-7-5-7-------|          x3
A-7--5-5-5--7--5-5-7-5-7-------|
E-5---------5--7-7-5-7-5-------|

e------------------------------|
B------------------------------|
G------7---------7-------------|
D-5--7-7--5--7-7-7-------------|
A-5--7-5--5--7-7-5-------------|
E-3--5----3--5-5---------------|

e------------------------------|
B------------------------------|
G----7-7-7---------------------|
D-7--7-7-7--7--5-5-7-5-7-------|          x3
A-7--5-5-5--7--5-5-7-5-7-------|
E-5---------5--7-7-5-7-5-------|

Outro: 3.01 - 3.10
e------------------------------|
B------------------------------|
G---7-7----7-----7-------------|
D-7-7-7--7-7-7-5-7-------------|
A-7-5-5--7-5-7-5-5-------------|
E-5------5---5-3---------------|
Tap to rate this tab
 
# A B C D E F G H I J K L M N O P Q R S T U V W X Y Z