Song name
# A B C D E F G H I J K L M N O P Q R S T U V W X Y Z

Rick Springfield - I Hate Myself tab

RICK SPRINGFIELD I HATE MYSELF

This is all I have so far it's a pretty simple song I will finish the tab when I have more time

Intro:
   C     F     Cm
e--0-X---1-X---3-X---|
B--1-X---0-X---0-X---|
G--0-X---2-X---4-X---|
D--2-X---3-X---5-X---|
A--3-X---3-X---5-X---|
E--0-X---0-X---0-X---|

   C     F     Cm    F         C     F     Cm    F
e--0-0---1-1---3-3---1-1-------0-0---1-1---3-3---1-1------------------------|
B--1-1---0-0---0-0---0-0-------1-1---0-0---0-0---0-0------------------------|
G--0-0---2-2---4-4---2-2-------0-0---2-2---4-4---2-2------------------------|
D--2-2---3-3---5-5---3-3-------2-2---3-3---5-5---3-3------------------------|
A--3-3---3-3---5-5---3-3-------3-3---3-3---5-5---3-3------------------------|
E--0-0---0-0---0-0---0-0-------0-0---0-0---0-0---0-0------------------------|
Tap to rate this tab
# A B C D E F G H I J K L M N O P Q R S T U V W X Y Z