Song name
# A B C D E F G H I J K L M N O P Q R S T U V W X Y Z

Rick Springfield - The Man That Never Was tab

-----------------------------------------------------------------
The Man That Never Was - Rick Springfield/Sound City Players
-----------------------------------------------------------------
Tabbed by: Vickshow

Tuning: E Standard

Not sure about the solo part but here is the basic outline for the song. Tabbed by 
ear/watching live performances

Intro                                                           
e|--------------------------------------------------------| 
B|--------------------------------------------------------|
G|--------------------------------------------------------|
D|---4v--0--6p0--4p0--2p0---2b3p0-------------------------|
A|---------------------------------2-----2--2-------------|
E|---------------------------------------0--0-------------|

e|-------------------------------------------------------|
B|-------------------------------------------------------|
G|-------------------------------------------------------|
D|-4v--0--6p0--4p0--2p0---2b3p0------------------4-------|
A|-------------------------------2-----2--2------2-------|
E|-------------------------------------0--0--------------|

Chorus
e|------------------------------------------------------------------------|
B|------------------------------------------------------------------------|
G|------------------------------------------------------------------------|
D|-----7-----7-7-7-7-7-7------9---7---9---7----7-7-7-7-7-7---2p0----------|
A|-----5-----5-5-5-5-5-5------7---5---7---5----5-5-5-5-5-5---------2---2--|
E|---------------------------------------------------------------------0--|
             ....pm.....                      .....pm......

Verse
e|------------------------------------------------------------------------|
B|------------------------------------------------------------------------|
G|------------------------------------------------------------------------|
D|--4----4-4---4--4--4--4---4-4-4----5----5-5---5--5--5--5---5-5-5--------|
A|--2----2-2---2--2--2--2---2-2-2----3----3-3---3--3--3--3---3-3-3--------|
E|------------------------------------------------------------------------|


                                     ______________________________|1
e|----------------------------------------------------------------------|
B|----------------------------------------------------------------------|
G|----------------------------------------------------------------------|
D|--7----7-7---7--7--7--7---7-7-7----9----9-9---9--9--9--9---9-9-9------|
A|--5----5-5---5--5--5--5---5-5-5----7----7-7---7--7--7--7---7-7-7------|
E|----------------------------------------------------------------------|

   ____________________________|2
e|-----------------------------------|
B|-----------------------------------|
G|-----------------------------------|
D|--7-----7--7-----7--7----7--7------|
A|--5-----5--5-----5--5----5--5------|
E|-----------------------------------|

Outro

e|---------------------------------------------------------------| 
B|---------------------------------------------------------------|
G|---------------------------------------------------------------|
D|---4v--0--6p0--4p0--2p0---2b3p0--------------------------------|
A|---------------------------------2-----2--2--------------------|
E|---------------------------------------0--0--------------------|

e|-----------------------------------------------------------| 
B|-----------------------------------------------------------|
G|-----------------------------------------------------------|
D|---4v--0--6p0--4p0--2p0---2b3p0-----2ph--------------------|
A|---------------------------------2-------------------------|
E|-----------------------------------------------------------|
Tap to rate this tab
# A B C D E F G H I J K L M N O P Q R S T U V W X Y Z