Song name
# A B C D E F G H I J K L M N O P Q R S T U V W X Y Z

Rick Springfield - The Man That Never Was tab

-----------------------------------------------------------------------------
The Man That Never Was (Intro Riff) - Rick Springfield/The Sound City Players
-----------------------------------------------------------------------------
Tabbed by: Ulfield      

Tuning: EADGBe

This riff is used many times throughout the song, in different variations,
but is the basic riff that gets repeated a few times in the intro.
Tabbed by ear.

sb=slight bend
p=pull-off

e|--------------------------------------------------------|
B|--------------------------------------------------------|
G|--------------------------------------------------------|
D|----4sb--0--6--0--4p0-------2p0-------------------------|
A|-----------------------5p0-------2----2--2--------------|
E|--------------------------------------0--0--------------|

e|--------------------------------------------------------|
B|--------------------------------------------------------|
G|----------------------------------9-9-9-----------------|
D|----4sb--0--6--0--4p0-------------9-9-9-----------------|
A|-----------------------5p0--------7-7-7-----------------|
E|--------------------------------------------------------| 
Tap to rate this tab
# A B C D E F G H I J K L M N O P Q R S T U V W X Y Z