Song name
# A B C D E F G H I J K L M N O P Q R S T U V W X Y Z

Rick Wakeman - The Battle The Forest tab

The Battle/The Forest: One of Rick's finest suites.

The notes aren't the problem here, but what you might know about Rick is that he can 
play VERY fast.
The solo is originally played on a minimoog synthesizer, but it can sound great on 
guitar too.
(unfortunately I can't play it fast enough on the guitar but maybe you can!)
I might have missed some hammer-ons and pull-offs though I actually had to slow the 
recording down to find all the notes :P


(/) Slide Up  (\) Slide Down  (h) Hammer On  (p) Pull Off  (b) Bend (r) Release (v) Vibrato


1:48
E|----------------------5/7-9-10b12-14v-17-17b19b17-17-19-17-------------|
B|--------------2h3/5--7-------------------------------------19p17--19---|
G|-----------2h4---------------------------------------------------------|
D|------0h2h4------------------------------------------------------------|
A|-0h2h4-----------------------------------------------------------------|
E|-----------------------------------------------------------------------|

E|-----------------------------------------------------------------------|
B|-17h19p17--------------------------------------------------------------|
G|----------19-18h19-16----16--------------------------------------------|
D|----------------------19-----16-14h15h16-----14------------14----------|
A|------------------------------------------17------17-16-15----17-16----|
E|--------------------------------------------------------------------17-|



E|--------------------------------------|
B|--------------------------------------|
G|--------------------------------------|
D|--------------13-12--------7-8-9v-----|
A|-14v-14p12h14-------12\9-9------------|
E|--------------------------------------|

Any additions? Mail me at shilka.lazo@gmail.com

Rick wakeman's communication centre http://www.rwcc.com/
Tap to rate this tab
 
# A B C D E F G H I J K L M N O P Q R S T U V W X Y Z