Guitaretab - guitar tabs
Song name
# A B C D E F G H I J K L M N O P Q R S T U V W X Y Z

Rickie Lee Jones - Chucks In Love tab

E|------------------------------------------------------------------------|
B|------------------------------------------------------------------------|
G|----------------------------------------------------------(GLISS)-------|
D|----------------2-2---5h6------4-------------------2----6\\5//6\\5//6---|x2
A|----------2h4--------------7-----------------2h4--------7\\6//7\\6//7---|
E|--0--3h4----------------------------0---3h4-----------------------------|

E|------------------------------------------------------------------------|
B|---------------------------------------------------------(GLISS)--------|
G|----------------2-2---5h6------4------------------2----6\\5//6\\5//6----|
D|----------2h4--------------7----------------2h4--------7\\6//7\\6//7----|x1
A|--0--3h4----------------------------0--3h4------------------------------|
E|------------------------------------------------------------------------|
[ Tab from: http://www.guitaretab.com/r/rickie-lee-jones/62135.html ]
E|------------------------------------------------------------------------|
B|------------------------------------------------------------------------|
G|----------------------------------------------------------(GLISS)-------|
D|----------------2-2---5h6------4-------------------2----6\\5//6\\5//6---|
A|----------2h4--------------7-----------------2h4--------7\\6//7\\6//7---|
E|--0--3h4----------------------------0---3h4-----------------------------|

E|------------------------------------------------------------------------|
B|------------------------------------------------------------------------|
G|----------------4------------------2------------------------------------|
D|----------4h6-----------------2h4----------------------------3~~--------|
A|-----5h6-------------0---3h4---------------------------------x~~--------|
E|--7--------------------------------------0---3h4---0---2h0---1~~--------|

After the Vebrato you then start the whole riff again......

this is my first ever tab..please rate this tab if you like it it is 100% accurate!
Related for Chucks In Love tab