Song name
# A B C D E F G H I J K L M N O P Q R S T U V W X Y Z

Ricky Gervais - Spaceman tab

This is the first song David Brent plays in Series 1 Episode 4 of
The Office. The whole song is fingerpicked, and it is in standard
tuning.

Intro

e|-------------------------------------------------------------------------|
b|-------1-------1-------1---------------3-------3-------3-----------------|
g|-----0-------0-------0-------0-------0-------0-------0-------0-----------|
d|---2-------2-------2-------2-------4-------4-------4-------4-------------|
a|-3-------3-------3-------3-------5-------5-------5-------5---------------|
e|-------------------------------------------------------------------------|

e|----------------------------------------------------0--------------------|
g|-------1-------1----------------------------------3---3-------------1--1-|
g|-----0-------0-------0-----0-----------0--------2-------2---------0------|
d|---2-------2-------2-----0-----0-----0--------0-----------0-----2--------|
a|-3-------3-------3-----2-----0-----2--------------------------3----------|
e|---------------------------------3---------------------------------------|

e|---------3po2-------------2------------------------------------------------|
b|-------3------3---------3---3----------------------------------------------|
g|-----2----------2-----2----------------------------------------------------|
d|-0-0--------------0--------------------------------------------------------|
a|---------------------------------------------------------------------------|
e|---------------------------------------------------------------------------|

The next guitar part seems slightly improvised. The picking patterns I
have chosen aren't exactly correct, but these are the notes he
uses, and it sounds close enough. (The gaps inbetween notes are
deliberatly done to represent the longer and shorter notes.

The Spaceman came down to answer some things

e|-------0----------|--------0-------------|-------------------------------|
b|---3--------3---3-|---3----------3---3---|-------------------------------|
g|-----2--------2---|-----0----------0-----|-------------------------------|
d|-0----------------|----------------------|-------------------------------|
a|------------------|-3--------------------|-------------------------------|
e|------------------|----------------------|-------------------------------|

The world gathered round from paupers to kings

e|-------0-------|--------0------------|-----------------------------------|
b|---3-----3---3-|----3----------3---3-|-----------------------------------|
g|-----0-----0---|------0----------0---|-----------------------------------|
d|---------------|---------------------|-----------------------------------|
a|-2-------------|--3------------------|-----------------------------------|
e|---------------|---------------------|-----------------------------------|

"I'll answer you're questions, I'll answer them true."

e|-------0-------------|-------0--------|----------------------------------|
b|---3----------3---3--|---3-----3---3--|----------------------------------|
g|-----2----------2----|-----0-----0----|----------------------------------|
d|-0-------------------|----------------|----------------------------------|
a|---------------------|-3--------------|----------------------------------|
e|---------------------|----------------|----------------------------------|

"I'll show you the way, you know what to do."

e|-------0------------|-------0---------|----------------------------------|
b|---3----------3---3-|---3-----3---3---|----------------------------------|
g|-----0----------0---|-----0-----0---0-|----------------------------------|
d|--------------------|-----------------|----------------------------------|
a|-2------------------|-3---------------|----------------------------------|
e|--------------------|-----------------|----------------------------------|

"Who is wrong, and who is right?"

e|-------0------------|--------0---------|---------------------------------|
b|---3----------3---3-|----3-----3---3---|---------------------------------|
g|-----2----------2---|------0-----0---0-|---------------------------------|
d|-0------------------|------------------|---------------------------------|
a|--------------------|--3---------------|---------------------------------|
e|--------------------|------------------|---------------------------------|

"Yellow, brown, black or white?"

e|-------0------------|-------0---------|----------------------------------|
b|---3----------3---3-|---3-----3---3---|----------------------------------|
g|-----0----------0---|-----0-----0---0-|----------------------------------|
d|--------------------|-----------------|----------------------------------|
a|-2------------------|-3---------------|----------------------------------|
e|--------------------|-----------------|----------------------------------|

The Spaceman, he anwered, "You no longer mind"

e|-------0----------|-------0-----------|----------------------------------|
b|---3----------3---|---3---------3---3-|----------------------------------|
g|-----2----------2-|-----0---------0---|----------------------------------|
d|-0----------------|-------------------|----------------------------------|
a|------------------|-3-----------------|----------------------------------|
e|------------------|-------------------|----------------------------------|

"I've opened you're eyes, you're now colour blind"

e|-------0---------|----------0----------------|---------------------------|
b|---3-----3---3---|----3----------------------|---------------------------|
g|-----0-----0---0-|-------0-------------------|---------------------------|
d|-----------------|---------------------------|---------------------------|
a|-2---------------|-3-------------------------|---------------------------|
e|-----------------|---------------------------|---------------------------|
Tap to rate this tab
 
# A B C D E F G H I J K L M N O P Q R S T U V W X Y Z