Guitaretab - guitar tabs
Song name
# A B C D E F G H I J K L M N O P Q R S T U V W X Y Z

Ricky Martin - She Is All I Ever Had tab

T1: Sylvain Hachey, GavinSly@hotmail.com, Ricky Martin, She's All I
Ever Had, august99

S2: There is no guitar in this song....but....i find out how to play
it....it's not perfect but its sound pretty close.


S1: Ricky Martin----She's all i ever had

Tabbed by : Sylvain Hachey (GavinSly@hotmail.com)

tuning standard

++little riff (or something) you can hear in the background++
e||-----6--7--4--6--------------
B||--0--------------7-----------
G||-----------------------------
D||-----------------------------
A||-----------------------------
E||-----------------------------

++verse++
     B?
e||--7------
B||--7------   you play this chord 
G||--8------   all along the verses
D||--9------
A||--9------
E||--7------
   Here I am.....Broken wings....ect...

++pre-chorus++
      Ab                           E                   G
e||---4----------------------------0-------------------3------
B||---4----------------------------0-------------------3------
G||---4----------------------------1-------------------0------
D||---6----------------------------2-------------------0------
A||---6----------------------------2-------------------2------
E||---4----------------------------0-------------------3------ 
      She's all, she's all I ever had............(at the end of
                                                  pre-chorus you 
                                                  play "G")     
++chorus++
      B?      F#      E       G
e||---7-------2-------0-------3---------------
B||---7-------2-------0-------3---------------
G||---8-------2-------1-------0---------------
D||---9-------4-------2-------0---------------
A||---9-------4-------2-------2---------------
E||---7-------2-------0-------3---------------
It's the way she makes me feel.............etc...


you are free to do what you want with this tabs....but if you want 
to put my tabs in a web page i just want to know please :)

B1: Submit


[ Tab from: http://www.guitaretab.com/r/ricky-martin/27148.html ]
Related for She Is All I Ever Had tab