Song name
# A B C D E F G H I J K L M N O P Q R S T U V W X Y Z

Ricky Martin - No Importa La Distancia tab

To be used as solo guitar in:

          F      G     Am            G
Un día llegaré, No importa la distancia
          F      G   Am            G
El rumbo encontraré, y  tendré valor
        E    Dm             Am       Dm
Paso a paso iré, y persistiré
        F  G     C         Am    G    C
A cualquier distancia yo el amor alcanzaré




E|--0--1--3------------------------------|
B|-----------1--3v--3/5--3--5--6--5--3v--|
G|---------------------------------------|
D|---------------------------------------|
A|---------------------------------------|
E|---------------------------------------|



E|--0--1--3---------------------------|
B|-----------1--3v--3/5--3--5--6--3v--|
G|------------------------------------|
D|------------------------------------|
A|------------------------------------|
E|------------------------------------|



E|--0--1--3-------------------------|
B|-----------1--0v--1--3--5--1------|
G|------------------------------2v--|
D|----------------------------------|
A|----------------------------------|
E|----------------------------------|



E|--------------------------------------------|
B|-----0--1--3--1--0--1--3/5--5--6--3--1--1v--|
G|--2-----------------------------------------|
D|--------------------------------------------|
A|--------------------------------------------|
E|--------------------------------------------|

(/) Slide Up  (\) Slide Down  (h) Hammer On  (p) Pull Off  (b) Bend (r) Release (v) Vibrato
Tap to rate this tab
# A B C D E F G H I J K L M N O P Q R S T U V W X Y Z